ISO-10303-21;
HEADER;
FILE_DESCRIPTION (( 'STEP AP214' ),
    '1' );
FILE_NAME ('METRIC GENERAL PURPOSE WASHER M6.STEP',
    '2023-03-30T19:14:18',
    ( '' ),
    ( '' ),
    'SwSTEP 2.0',
    'SolidWorks 2021',
    '' );
FILE_SCHEMA (( 'AUTOMOTIVE_DESIGN' ));
ENDSEC;

DATA;
#1 = ORIENTED_EDGE ( 'NONE', *, *, #204, .F. ) ;
#2 = CLOSED_SHELL ( 'NONE', ( #124, #102, #49, #27, #119, #54 ) ) ;
#3 = FACE_OUTER_BOUND ( 'NONE', #151, .T. ) ;
#4 = VECTOR ( 'NONE', #206, 1000.000000000000000 ) ;
#5 = ORIENTED_EDGE ( 'NONE', *, *, #98, .T. ) ;
#6 = CARTESIAN_POINT ( 'NONE',  ( 0.000000000000000000, 0.000000000000000000, 1.899999999999999911 ) ) ;
#7 = CARTESIAN_POINT ( 'NONE',  ( 6.000000000000000888, 7.347880794884119736E-16, 1.899999999999999911 ) ) ;
#8 = VECTOR ( 'NONE', #196, 1000.000000000000000 ) ;
#9 =( LENGTH_UNIT ( ) NAMED_UNIT ( * ) SI_UNIT ( .MILLI., .METRE. ) );
#10 = DIRECTION ( 'NONE',  ( -1.000000000000000000, 0.000000000000000000, 0.000000000000000000 ) ) ;
#11 = DIRECTION ( 'NONE',  ( 0.000000000000000000, 0.000000000000000000, 1.000000000000000000 ) ) ;
#12 = EDGE_CURVE ( 'NONE', #125, #188, #203, .T. ) ;
#13 = DIRECTION ( 'NONE',  ( 0.000000000000000000, 0.000000000000000000, 1.000000000000000000 ) ) ;
#14 = DIRECTION ( 'NONE',  ( 1.000000000000000000, 0.000000000000000000, 0.000000000000000000 ) ) ;
#15 = VERTEX_POINT ( 'NONE', #72 ) ;
#16 = DIRECTION ( 'NONE',  ( 1.000000000000000000, 0.000000000000000000, 0.000000000000000000 ) ) ;
#17 = FACE_OUTER_BOUND ( 'NONE', #106, .T. ) ;
#18 = PRODUCT_DEFINITION_CONTEXT ( 'detailed design', #197, 'design' ) ;
#19 = ORIENTED_EDGE ( 'NONE', *, *, #212, .T. ) ;
#20 = MECHANICAL_DESIGN_GEOMETRIC_PRESENTATION_REPRESENTATION (  '', ( #110 ), #42 ) ;
#21 = COLOUR_RGB ( '',0.5294117647058823595, 0.5490196078431373028, 0.5490196078431373028 ) ;
#22 = ORIENTED_EDGE ( 'NONE', *, *, #40, .F. ) ;
#23 = DIRECTION ( 'NONE',  ( 0.000000000000000000, 0.000000000000000000, 1.000000000000000000 ) ) ;
#24 = FACE_OUTER_BOUND ( 'NONE', #76, .T. ) ;
#25 = SURFACE_STYLE_FILL_AREA ( #97 ) ;
#26 = CARTESIAN_POINT ( 'NONE',  ( 0.000000000000000000, 0.000000000000000000, 1.899999999999999911 ) ) ;
#27 = ADVANCED_FACE ( 'NONE', ( #3, #92 ), #51, .F. ) ;
#28 = PRODUCT ( 'METRIC GENERAL PURPOSE WASHER M6', 'METRIC GENERAL PURPOSE WASHER M6', '', ( #116 ) ) ;
#29 = VECTOR ( 'NONE', #62, 1000.000000000000000 ) ;
#30 = ORIENTED_EDGE ( 'NONE', *, *, #133, .T. ) ;
#31 = EDGE_CURVE ( 'NONE', #139, #37, #60, .T. ) ;
#32 = CARTESIAN_POINT ( 'NONE',  ( 0.000000000000000000, 0.000000000000000000, 1.899999999999999911 ) ) ;
#33 =( NAMED_UNIT ( * ) PLANE_ANGLE_UNIT ( ) SI_UNIT ( $, .RADIAN. ) );
#34 = EDGE_LOOP ( 'NONE', ( #190, #19 ) ) ;
#35 = CIRCLE ( 'NONE', #117, 3.300000000000000266 ) ;
#36 = ORIENTED_EDGE ( 'NONE', *, *, #133, .F. ) ;
#37 = VERTEX_POINT ( 'NONE', #121 ) ;
#38 = DIRECTION ( 'NONE',  ( -1.000000000000000000, 0.000000000000000000, 0.000000000000000000 ) ) ;
#39 = CARTESIAN_POINT ( 'NONE',  ( -6.000000000000000888, 0.000000000000000000, 1.899999999999999911 ) ) ;
#40 = EDGE_CURVE ( 'NONE', #213, #188, #35, .T. ) ;
#41 = DIRECTION ( 'NONE',  ( 0.000000000000000000, 0.000000000000000000, 1.000000000000000000 ) ) ;
#42 =( GEOMETRIC_REPRESENTATION_CONTEXT ( 3 ) GLOBAL_UNCERTAINTY_ASSIGNED_CONTEXT ( ( #86 ) ) GLOBAL_UNIT_ASSIGNED_CONTEXT ( ( #183, #33, #48 ) ) REPRESENTATION_CONTEXT ( 'NONE', 'WORKASPACE' ) );
#43 = AXIS2_PLACEMENT_3D ( 'NONE', #158, #63, #38 ) ;
#44 = CARTESIAN_POINT ( 'NONE',  ( -6.000000000000000888, 0.000000000000000000, 0.000000000000000000 ) ) ;
#45 = APPLICATION_PROTOCOL_DEFINITION ( 'draft international standard', 'automotive_design', 1998, #197 ) ;
#46 = PRODUCT_DEFINITION_SHAPE ( 'NONE', 'NONE',  #175 ) ;
#47 =( NAMED_UNIT ( * ) PLANE_ANGLE_UNIT ( ) SI_UNIT ( $, .RADIAN. ) );
#48 =( NAMED_UNIT ( * ) SI_UNIT ( $, .STERADIAN. ) SOLID_ANGLE_UNIT ( ) );
#49 = ADVANCED_FACE ( 'NONE', ( #200, #55 ), #118, .T. ) ;
#50 = ORIENTED_EDGE ( 'NONE', *, *, #98, .F. ) ;
#51 = PLANE ( 'NONE',  #169 ) ;
#52 = CIRCLE ( 'NONE', #177, 3.300000000000000266 ) ;
#53 = ORIENTED_EDGE ( 'NONE', *, *, #161, .T. ) ;
#54 = ADVANCED_FACE ( 'NONE', ( #17 ), #88, .F. ) ;
#55 = FACE_BOUND ( 'NONE', #154, .T. ) ;
#56 =( GEOMETRIC_REPRESENTATION_CONTEXT ( 3 ) GLOBAL_UNCERTAINTY_ASSIGNED_CONTEXT ( ( #201 ) ) GLOBAL_UNIT_ASSIGNED_CONTEXT ( ( #9, #174, #79 ) ) REPRESENTATION_CONTEXT ( 'NONE', 'WORKASPACE' ) );
#57 = AXIS2_PLACEMENT_3D ( 'NONE', #32, #103, #166 ) ;
#58 = ORIENTED_EDGE ( 'NONE', *, *, #31, .F. ) ;
#59 = DIRECTION ( 'NONE',  ( 1.000000000000000000, 0.000000000000000000, 0.000000000000000000 ) ) ;
#60 = CIRCLE ( 'NONE', #68, 6.000000000000000888 ) ;
#61 = CARTESIAN_POINT ( 'NONE',  ( 0.000000000000000000, 0.000000000000000000, 0.000000000000000000 ) ) ;
#62 = DIRECTION ( 'NONE',  ( -0.000000000000000000, -0.000000000000000000, -1.000000000000000000 ) ) ;
#63 = DIRECTION ( 'NONE',  ( -0.000000000000000000, -0.000000000000000000, -1.000000000000000000 ) ) ;
#64 = PRESENTATION_LAYER_ASSIGNMENT (  '', '', ( #110 ) ) ;
#65 = FACE_OUTER_BOUND ( 'NONE', #184, .T. ) ;
#66 = FILL_AREA_STYLE_COLOUR ( '', #153 ) ;
#67 = PRESENTATION_STYLE_ASSIGNMENT (( #194 ) ) ;
#68 = AXIS2_PLACEMENT_3D ( 'NONE', #93, #155, #69 ) ;
#69 = DIRECTION ( 'NONE',  ( 1.000000000000000000, 0.000000000000000000, 0.000000000000000000 ) ) ;
#70 = ORIENTED_EDGE ( 'NONE', *, *, #163, .F. ) ;
#71 =( LENGTH_UNIT ( ) NAMED_UNIT ( * ) SI_UNIT ( .MILLI., .METRE. ) );
#72 = CARTESIAN_POINT ( 'NONE',  ( 6.000000000000000888, 7.347880794884119736E-16, 0.000000000000000000 ) ) ;
#73 = AXIS2_PLACEMENT_3D ( 'NONE', #214, #13, #16 ) ;
#74 = EDGE_LOOP ( 'NONE', ( #30, #164 ) ) ;
#75 = UNCERTAINTY_MEASURE_WITH_UNIT (LENGTH_MEASURE( 1.000000000000000082E-05 ), #71, 'distance_accuracy_value', 'NONE');
#76 = EDGE_LOOP ( 'NONE', ( #85, #58, #168, #53 ) ) ;
#77 = CARTESIAN_POINT ( 'NONE',  ( 0.000000000000000000, 0.000000000000000000, 1.899999999999999911 ) ) ;
#78 = SURFACE_SIDE_STYLE ('',( #25 ) ) ;
#79 =( NAMED_UNIT ( * ) SI_UNIT ( $, .STERADIAN. ) SOLID_ANGLE_UNIT ( ) );
#80 = CARTESIAN_POINT ( 'NONE',  ( 0.000000000000000000, 0.000000000000000000, 1.899999999999999911 ) ) ;
#81 = LINE ( 'NONE', #39, #202 ) ;
#82 = CIRCLE ( 'NONE', #157, 6.000000000000000888 ) ;
#83 = CARTESIAN_POINT ( 'NONE',  ( 3.300000000000000266, 4.041334437186265017E-16, 0.000000000000000000 ) ) ;
#84 = AXIS2_PLACEMENT_3D ( 'NONE', #80, #41, #147 ) ;
#85 = ORIENTED_EDGE ( 'NONE', *, *, #141, .F. ) ;
#86 = UNCERTAINTY_MEASURE_WITH_UNIT (LENGTH_MEASURE( 1.000000000000000082E-05 ), #183, 'distance_accuracy_value', 'NONE');
#87 = APPLICATION_PROTOCOL_DEFINITION ( 'draft international standard', 'automotive_design', 1998, #107 ) ;
#88 = CYLINDRICAL_SURFACE ( 'NONE', #112, 3.300000000000000266 ) ;
#89 = ORIENTED_EDGE ( 'NONE', *, *, #209, .F. ) ;
#90 = ADVANCED_BREP_SHAPE_REPRESENTATION ( 'METRIC GENERAL PURPOSE WASHER M6', ( #113, #91 ), #189 ) ;
#91 = AXIS2_PLACEMENT_3D ( 'NONE', #165, #185, #14 ) ;
#92 = FACE_BOUND ( 'NONE', #74, .T. ) ;
#93 = CARTESIAN_POINT ( 'NONE',  ( 0.000000000000000000, 0.000000000000000000, 1.899999999999999911 ) ) ;
#94 = DIRECTION ( 'NONE',  ( -0.000000000000000000, -0.000000000000000000, -1.000000000000000000 ) ) ;
#95 = CIRCLE ( 'NONE', #73, 6.000000000000000888 ) ;
#96 = DIRECTION ( 'NONE',  ( -1.000000000000000000, 0.000000000000000000, 0.000000000000000000 ) ) ;
#97 = FILL_AREA_STYLE ('',( #132 ) ) ;
#98 = EDGE_CURVE ( 'NONE', #187, #125, #182, .T. ) ;
#99 = SHAPE_DEFINITION_REPRESENTATION ( #46, #90 ) ;
#100 = PRODUCT_DEFINITION_FORMATION_WITH_SPECIFIED_SOURCE ( 'ANY', '', #28, .NOT_KNOWN. ) ;
#101 = ORIENTED_EDGE ( 'NONE', *, *, #161, .F. ) ;
#102 = ADVANCED_FACE ( 'NONE', ( #65 ), #179, .T. ) ;
#103 = DIRECTION ( 'NONE',  ( 0.000000000000000000, 0.000000000000000000, 1.000000000000000000 ) ) ;
#104 = DIRECTION ( 'NONE',  ( 0.000000000000000000, 0.000000000000000000, 1.000000000000000000 ) ) ;
#105 = ORIENTED_EDGE ( 'NONE', *, *, #167, .T. ) ;
#106 = EDGE_LOOP ( 'NONE', ( #211, #5, #126, #22 ) ) ;
#107 = APPLICATION_CONTEXT ( 'automotive_design' ) ;
#108 = CARTESIAN_POINT ( 'NONE',  ( -3.300000000000000266, 0.000000000000000000, 1.899999999999999911 ) ) ;
#109 = CARTESIAN_POINT ( 'NONE',  ( 0.000000000000000000, 0.000000000000000000, 1.899999999999999911 ) ) ;
#110 = STYLED_ITEM ( 'NONE', ( #67 ), #90 ) ;
#111 = DIRECTION ( 'NONE',  ( -0.000000000000000000, -0.000000000000000000, -1.000000000000000000 ) ) ;
#112 = AXIS2_PLACEMENT_3D ( 'NONE', #77, #111, #205 ) ;
#113 = MANIFOLD_SOLID_BREP ( 'Boss-Extrude1', #2 ) ;
#114 = CARTESIAN_POINT ( 'NONE',  ( -3.300000000000000266, 0.000000000000000000, 0.000000000000000000 ) ) ;
#115 = CYLINDRICAL_SURFACE ( 'NONE', #130, 6.000000000000000888 ) ;
#116 = PRODUCT_CONTEXT ( 'NONE', #107, 'mechanical' ) ;
#117 = AXIS2_PLACEMENT_3D ( 'NONE', #195, #104, #171 ) ;
#118 = PLANE ( 'NONE',  #57 ) ;
#119 = ADVANCED_FACE ( 'NONE', ( #24 ), #115, .T. ) ;
#120 = SURFACE_STYLE_FILL_AREA ( #162 ) ;
#121 = CARTESIAN_POINT ( 'NONE',  ( 6.000000000000000888, 7.347880794884119736E-16, 1.899999999999999911 ) ) ;
#122 = DIRECTION ( 'NONE',  ( -0.000000000000000000, -0.000000000000000000, -1.000000000000000000 ) ) ;
#123 = ORIENTED_EDGE ( 'NONE', *, *, #163, .T. ) ;
#124 = ADVANCED_FACE ( 'NONE', ( #159 ), #143, .F. ) ;
#125 = VERTEX_POINT ( 'NONE', #108 ) ;
#126 = ORIENTED_EDGE ( 'NONE', *, *, #12, .T. ) ;
#127 = DIRECTION ( 'NONE',  ( 1.000000000000000000, 0.000000000000000000, 0.000000000000000000 ) ) ;
#128 = CARTESIAN_POINT ( 'NONE',  ( 3.300000000000000266, 4.041334437186265017E-16, 1.899999999999999911 ) ) ;
#129 = PRESENTATION_STYLE_ASSIGNMENT (( #193 ) ) ;
#130 = AXIS2_PLACEMENT_3D ( 'NONE', #6, #145, #96 ) ;
#131 = CARTESIAN_POINT ( 'NONE',  ( -6.000000000000000888, 0.000000000000000000, 1.899999999999999911 ) ) ;
#132 = FILL_AREA_STYLE_COLOUR ( '', #21 ) ;
#133 = EDGE_CURVE ( 'NONE', #188, #213, #52, .T. ) ;
#134 = SURFACE_SIDE_STYLE ('',( #120 ) ) ;
#135 = CIRCLE ( 'NONE', #172, 6.000000000000000888 ) ;
#136 = ORIENTED_EDGE ( 'NONE', *, *, #141, .T. ) ;
#137 = CARTESIAN_POINT ( 'NONE',  ( -3.300000000000000266, 0.000000000000000000, 1.899999999999999911 ) ) ;
#138 = AXIS2_PLACEMENT_3D ( 'NONE', #26, #11, #192 ) ;
#139 = VERTEX_POINT ( 'NONE', #131 ) ;
#140 = DIRECTION ( 'NONE',  ( 1.000000000000000000, 0.000000000000000000, -0.000000000000000000 ) ) ;
#141 = EDGE_CURVE ( 'NONE', #37, #15, #180, .T. ) ;
#142 = ORIENTED_EDGE ( 'NONE', *, *, #12, .F. ) ;
#143 = CYLINDRICAL_SURFACE ( 'NONE', #186, 3.300000000000000266 ) ;
#144 = LINE ( 'NONE', #160, #29 ) ;
#145 = DIRECTION ( 'NONE',  ( -0.000000000000000000, -0.000000000000000000, -1.000000000000000000 ) ) ;
#146 = DIRECTION ( 'NONE',  ( 1.000000000000000000, 0.000000000000000000, 0.000000000000000000 ) ) ;
#147 = DIRECTION ( 'NONE',  ( 1.000000000000000000, 0.000000000000000000, 0.000000000000000000 ) ) ;
#148 = STYLED_ITEM ( 'NONE', ( #129 ), #113 ) ;
#149 = ORIENTED_EDGE ( 'NONE', *, *, #212, .F. ) ;
#150 =( NAMED_UNIT ( * ) SI_UNIT ( $, .STERADIAN. ) SOLID_ANGLE_UNIT ( ) );
#151 = EDGE_LOOP ( 'NONE', ( #101, #70 ) ) ;
#152 = ORIENTED_EDGE ( 'NONE', *, *, #204, .T. ) ;
#153 = COLOUR_RGB ( '',0.5294117647058823595, 0.5490196078431373028, 0.5490196078431373028 ) ;
#154 = EDGE_LOOP ( 'NONE', ( #1, #50 ) ) ;
#155 = DIRECTION ( 'NONE',  ( 0.000000000000000000, 0.000000000000000000, 1.000000000000000000 ) ) ;
#156 = DIRECTION ( 'NONE',  ( 0.000000000000000000, 0.000000000000000000, 1.000000000000000000 ) ) ;
#157 = AXIS2_PLACEMENT_3D ( 'NONE', #61, #210, #127 ) ;
#158 = CARTESIAN_POINT ( 'NONE',  ( 0.000000000000000000, 0.000000000000000000, 1.899999999999999911 ) ) ;
#159 = FACE_OUTER_BOUND ( 'NONE', #191, .T. ) ;
#160 = CARTESIAN_POINT ( 'NONE',  ( 3.300000000000000266, 4.041334437186265017E-16, 1.899999999999999911 ) ) ;
#161 = EDGE_CURVE ( 'NONE', #199, #15, #135, .T. ) ;
#162 = FILL_AREA_STYLE ('',( #66 ) ) ;
#163 = EDGE_CURVE ( 'NONE', #15, #199, #82, .T. ) ;
#164 = ORIENTED_EDGE ( 'NONE', *, *, #40, .T. ) ;
#165 = CARTESIAN_POINT ( 'NONE',  ( 0.000000000000000000, 0.000000000000000000, 0.000000000000000000 ) ) ;
#166 = DIRECTION ( 'NONE',  ( 1.000000000000000000, 0.000000000000000000, -0.000000000000000000 ) ) ;
#167 = EDGE_CURVE ( 'NONE', #187, #213, #144, .T. ) ;
#168 = ORIENTED_EDGE ( 'NONE', *, *, #209, .T. ) ;
#169 = AXIS2_PLACEMENT_3D ( 'NONE', #173, #23, #140 ) ;
#170 = PRODUCT_RELATED_PRODUCT_CATEGORY ( 'part', '', ( #28 ) ) ;
#171 = DIRECTION ( 'NONE',  ( 1.000000000000000000, 0.000000000000000000, 0.000000000000000000 ) ) ;
#172 = AXIS2_PLACEMENT_3D ( 'NONE', #208, #176, #59 ) ;
#173 = CARTESIAN_POINT ( 'NONE',  ( 0.000000000000000000, 0.000000000000000000, 0.000000000000000000 ) ) ;
#174 =( NAMED_UNIT ( * ) PLANE_ANGLE_UNIT ( ) SI_UNIT ( $, .RADIAN. ) );
#175 = PRODUCT_DEFINITION ( 'UNKNOWN', '', #100, #18 ) ;
#176 = DIRECTION ( 'NONE',  ( 0.000000000000000000, 0.000000000000000000, 1.000000000000000000 ) ) ;
#177 = AXIS2_PLACEMENT_3D ( 'NONE', #207, #156, #146 ) ;
#178 = PRESENTATION_LAYER_ASSIGNMENT (  '', '', ( #148 ) ) ;
#179 = CYLINDRICAL_SURFACE ( 'NONE', #43, 6.000000000000000888 ) ;
#180 = LINE ( 'NONE', #7, #4 ) ;
#181 = MECHANICAL_DESIGN_GEOMETRIC_PRESENTATION_REPRESENTATION (  '', ( #148 ), #56 ) ;
#182 = CIRCLE ( 'NONE', #84, 3.300000000000000266 ) ;
#183 =( LENGTH_UNIT ( ) NAMED_UNIT ( * ) SI_UNIT ( .MILLI., .METRE. ) );
#184 = EDGE_LOOP ( 'NONE', ( #149, #136, #123, #89 ) ) ;
#185 = DIRECTION ( 'NONE',  ( 0.000000000000000000, 0.000000000000000000, 1.000000000000000000 ) ) ;
#186 = AXIS2_PLACEMENT_3D ( 'NONE', #109, #94, #10 ) ;
#187 = VERTEX_POINT ( 'NONE', #128 ) ;
#188 = VERTEX_POINT ( 'NONE', #114 ) ;
#189 =( GEOMETRIC_REPRESENTATION_CONTEXT ( 3 ) GLOBAL_UNCERTAINTY_ASSIGNED_CONTEXT ( ( #75 ) ) GLOBAL_UNIT_ASSIGNED_CONTEXT ( ( #71, #47, #150 ) ) REPRESENTATION_CONTEXT ( 'NONE', 'WORKASPACE' ) );
#190 = ORIENTED_EDGE ( 'NONE', *, *, #31, .T. ) ;
#191 = EDGE_LOOP ( 'NONE', ( #152, #105, #36, #142 ) ) ;
#192 = DIRECTION ( 'NONE',  ( 1.000000000000000000, 0.000000000000000000, 0.000000000000000000 ) ) ;
#193 = SURFACE_STYLE_USAGE ( .BOTH. , #78 ) ;
#194 = SURFACE_STYLE_USAGE ( .BOTH. , #134 ) ;
#195 = CARTESIAN_POINT ( 'NONE',  ( 0.000000000000000000, 0.000000000000000000, 0.000000000000000000 ) ) ;
#196 = DIRECTION ( 'NONE',  ( -0.000000000000000000, -0.000000000000000000, -1.000000000000000000 ) ) ;
#197 = APPLICATION_CONTEXT ( 'automotive_design' ) ;
#198 = CIRCLE ( 'NONE', #138, 3.300000000000000266 ) ;
#199 = VERTEX_POINT ( 'NONE', #44 ) ;
#200 = FACE_OUTER_BOUND ( 'NONE', #34, .T. ) ;
#201 = UNCERTAINTY_MEASURE_WITH_UNIT (LENGTH_MEASURE( 1.000000000000000082E-05 ), #9, 'distance_accuracy_value', 'NONE');
#202 = VECTOR ( 'NONE', #122, 1000.000000000000000 ) ;
#203 = LINE ( 'NONE', #137, #8 ) ;
#204 = EDGE_CURVE ( 'NONE', #125, #187, #198, .T. ) ;
#205 = DIRECTION ( 'NONE',  ( -1.000000000000000000, 0.000000000000000000, 0.000000000000000000 ) ) ;
#206 = DIRECTION ( 'NONE',  ( -0.000000000000000000, -0.000000000000000000, -1.000000000000000000 ) ) ;
#207 = CARTESIAN_POINT ( 'NONE',  ( 0.000000000000000000, 0.000000000000000000, 0.000000000000000000 ) ) ;
#208 = CARTESIAN_POINT ( 'NONE',  ( 0.000000000000000000, 0.000000000000000000, 0.000000000000000000 ) ) ;
#209 = EDGE_CURVE ( 'NONE', #139, #199, #81, .T. ) ;
#210 = DIRECTION ( 'NONE',  ( 0.000000000000000000, 0.000000000000000000, 1.000000000000000000 ) ) ;
#211 = ORIENTED_EDGE ( 'NONE', *, *, #167, .F. ) ;
#212 = EDGE_CURVE ( 'NONE', #37, #139, #95, .T. ) ;
#213 = VERTEX_POINT ( 'NONE', #83 ) ;
#214 = CARTESIAN_POINT ( 'NONE',  ( 0.000000000000000000, 0.000000000000000000, 1.899999999999999911 ) ) ;
ENDSEC;
END-ISO-10303-21;
