ISO-10303-21;
HEADER;

/* File generated by Shapr3D Version 3.0 */

FILE_DESCRIPTION(('HOOPS Exchange Step'),'2;1');

FILE_NAME('/var/folders/_6/82lv31f15s971197f1211g200000gn/T/com.shapr3d.shapr/export/temp_export',
'2021-08-02T18:13:26-05:00',
('poastoast'),
('Shapr3D Limited'),
'HOOPS Exchange 2021.1',
'Shapr3D',
'Authorized');

FILE_SCHEMA( ('AP203_CONFIGURATION_CONTROLLED_3D_DESIGN_OF_MECHANICAL_PARTS_AND_ASSEMBLIES_MIM_LF') );

ENDSEC;

DATA;
#3=(NAMED_UNIT(*)PLANE_ANGLE_UNIT()SI_UNIT($,.RADIAN.));
#4=PLANE_ANGLE_MEASURE_WITH_UNIT(PLANE_ANGLE_MEASURE(0.0174532925),#3);
#5=(CONVERSION_BASED_UNIT('DEGREE',#4)NAMED_UNIT(#6)PLANE_ANGLE_UNIT());
#6=DIMENSIONAL_EXPONENTS(0.,0.,0.,0.,0.,0.,0.);
#7=(NAMED_UNIT(*)SI_UNIT($,.STERADIAN.)SOLID_ANGLE_UNIT());
#8=(LENGTH_UNIT()NAMED_UNIT(*)SI_UNIT(.MILLI.,.METRE.));
#9=UNCERTAINTY_MEASURE_WITH_UNIT(LENGTH_MEASURE(1.000000E-03),#8,'DISTANCE_ACCURACY_VALUE','Maximum Tolerance applied to model');
#10=(GEOMETRIC_REPRESENTATION_CONTEXT(3)GLOBAL_UNCERTAINTY_ASSIGNED_CONTEXT((#9))GLOBAL_UNIT_ASSIGNED_CONTEXT((#8,#5,#7))REPRESENTATION_CONTEXT('','/var/folders/_6/82lv31f15s971197f1211g200000gn/T/com.shapr3d.shapr/BF462D1F-EC06-4E14-8E6E-6B21C8A27C2D.tmp'));
#12=CARTESIAN_POINT('',(0.,0.,0.));
#13=DIRECTION('',(0.,0.,1.));
#14=DIRECTION('',(1.,0.,0.));
#15=AXIS2_PLACEMENT_3D('',#12,#13,#14);
#26=(NAMED_UNIT(*)PLANE_ANGLE_UNIT()SI_UNIT($,.RADIAN.));
#27=PLANE_ANGLE_MEASURE_WITH_UNIT(PLANE_ANGLE_MEASURE(0.0174532925),#26);
#28=(CONVERSION_BASED_UNIT('DEGREE',#27)NAMED_UNIT(#29)PLANE_ANGLE_UNIT());
#29=DIMENSIONAL_EXPONENTS(0.,0.,0.,0.,0.,0.,0.);
#30=(NAMED_UNIT(*)SI_UNIT($,.STERADIAN.)SOLID_ANGLE_UNIT());
#31=(LENGTH_UNIT()NAMED_UNIT(*)SI_UNIT(.MILLI.,.METRE.));
#32=UNCERTAINTY_MEASURE_WITH_UNIT(LENGTH_MEASURE(1.000000E-05),#31,'DISTANCE_ACCURACY_VALUE','Maximum Tolerance applied to model');
#33=(GEOMETRIC_REPRESENTATION_CONTEXT(3)GLOBAL_UNCERTAINTY_ASSIGNED_CONTEXT((#32))GLOBAL_UNIT_ASSIGNED_CONTEXT((#31,#28,#30))REPRESENTATION_CONTEXT('','0'));
#35=CARTESIAN_POINT('',(0.,0.,0.));
#36=DIRECTION('',(0.,0.,1.));
#37=DIRECTION('',(1.,0.,0.));
#38=AXIS2_PLACEMENT_3D('',#35,#36,#37);
#49=CARTESIAN_POINT('',(0.,0.,0.));
#50=DIRECTION('',(0.,0.,1.));
#51=DIRECTION('',(1.,0.,-0.));
#52=AXIS2_PLACEMENT_3D('',#49,#50,#51);
#53=ITEM_DEFINED_TRANSFORMATION('','',#52,#38);
#54=(REPRESENTATION_RELATIONSHIP('','',#39,#16)REPRESENTATION_RELATIONSHIP_WITH_TRANSFORMATION(#53)SHAPE_REPRESENTATION_RELATIONSHIP());
#55=NEXT_ASSEMBLY_USAGE_OCCURRENCE('spacer-ID10-OD16-L38.SLDPRT_1','spacer-ID10-OD16-L38.SLDPRT','spacer-ID10-OD16-L38.SLDPRT',#25,#48,$);
#56=PRODUCT_DEFINITION_SHAPE('','',#55);
#57=CONTEXT_DEPENDENT_SHAPE_REPRESENTATION(#54,#56);
#59=CARTESIAN_POINT('',(7.,38.,0.));
#60=DIRECTION('',(0.,1.,0.));
#61=DIRECTION('',(0.,0.,1.));
#62=AXIS2_PLACEMENT_3D('',#59,#60,#61);
#63=PLANE('',#62);
#64=CARTESIAN_POINT('',(-0.,38.,5.5));
#65=VERTEX_POINT('',#64);
#66=CARTESIAN_POINT('',(0.,38.,0.));
#67=DIRECTION('',(-0.,-1.,-0.));
#68=DIRECTION('',(0.,-0.,1.));
#69=AXIS2_PLACEMENT_3D('',#66,#67,#68);
#70=CIRCLE('',#69,5.5);
#71=EDGE_CURVE('',#65,#65,#70,.T.);
#72=ORIENTED_EDGE('',*,*,#71,.T.);
#73=EDGE_LOOP('',(#72));
#74=FACE_BOUND('',#73,.T.);
#75=CARTESIAN_POINT('',(-0.,38.,-7.));
#76=VERTEX_POINT('',#75);
#77=CARTESIAN_POINT('',(0.,38.,0.));
#78=DIRECTION('',(0.,-1.,0.));
#79=DIRECTION('',(0.,0.,-1.));
#80=AXIS2_PLACEMENT_3D('',#77,#78,#79);
#81=CIRCLE('',#80,7.);
#82=EDGE_CURVE('',#76,#76,#81,.T.);
#83=ORIENTED_EDGE('',*,*,#82,.F.);
#84=EDGE_LOOP('',(#83));
#85=FACE_BOUND('',#84,.T.);
#86=ADVANCED_FACE('',(#74,#85),#63,.T.);
#87=CARTESIAN_POINT('',(0.,0.,0.));
#88=DIRECTION('',(0.,-1.,0.));
#89=DIRECTION('',(0.,0.,-1.));
#90=AXIS2_PLACEMENT_3D('',#87,#88,#89);
#91=CYLINDRICAL_SURFACE('',#90,5.2);
#92=CARTESIAN_POINT('',(-0.,0.3,-5.2));
#93=VERTEX_POINT('',#92);
#94=CARTESIAN_POINT('',(0.,37.7,-5.2));
#95=VERTEX_POINT('',#94);
#96=CARTESIAN_POINT('',(0.,0.3,-5.2));
#97=DIRECTION('',(-0.,1.,-0.));
#98=VECTOR('',#97,37.4);
#99=LINE('',#96,#98);
#100=EDGE_CURVE('',#93,#95,#99,.T.);
#101=ORIENTED_EDGE('',*,*,#100,.F.);
#102=CARTESIAN_POINT('',(0.,0.3,0.));
#103=DIRECTION('',(0.,-1.,0.));
#104=DIRECTION('',(0.,0.,-1.));
#105=AXIS2_PLACEMENT_3D('',#102,#103,#104);
#106=CIRCLE('',#105,5.2);
#107=EDGE_CURVE('',#93,#93,#106,.T.);
#108=ORIENTED_EDGE('',*,*,#107,.T.);
#109=ORIENTED_EDGE('',*,*,#100,.T.);
#110=CARTESIAN_POINT('',(-0.,37.7,5.2));
#111=VERTEX_POINT('',#110);
#112=CARTESIAN_POINT('',(0.,37.7,0.));
#113=DIRECTION('',(0.,1.,0.));
#114=DIRECTION('',(0.,-0.,1.));
#115=AXIS2_PLACEMENT_3D('',#112,#113,#114);
#116=CIRCLE('',#115,5.2);
#117=EDGE_CURVE('',#95,#111,#116,.T.);
#118=ORIENTED_EDGE('',*,*,#117,.T.);
#119=CARTESIAN_POINT('',(0.,37.7,0.));
#120=DIRECTION('',(0.,1.,0.));
#121=DIRECTION('',(0.,-0.,1.));
#122=AXIS2_PLACEMENT_3D('',#119,#120,#121);
#123=CIRCLE('',#122,5.2);
#124=EDGE_CURVE('',#111,#95,#123,.T.);
#125=ORIENTED_EDGE('',*,*,#124,.T.);
#126=EDGE_LOOP('',(#101,#108,#109,#118,#125));
#127=FACE_BOUND('',#126,.T.);
#128=ADVANCED_FACE('',(#127),#91,.F.);
#129=CARTESIAN_POINT('',(5.2,0.,0.));
#130=DIRECTION('',(0.,-1.,0.));
#131=DIRECTION('',(0.,0.,-1.));
#132=AXIS2_PLACEMENT_3D('',#129,#130,#131);
#133=PLANE('',#132);
#134=CARTESIAN_POINT('',(-0.,0.,-5.5));
#135=VERTEX_POINT('',#134);
#136=CARTESIAN_POINT('',(0.,0.,0.));
#137=DIRECTION('',(-0.,1.,-0.));
#138=DIRECTION('',(0.,0.,-1.));
#139=AXIS2_PLACEMENT_3D('',#136,#137,#138);
#140=CIRCLE('',#139,5.5);
#141=EDGE_CURVE('',#135,#135,#140,.T.);
#142=ORIENTED_EDGE('',*,*,#141,.T.);
#143=EDGE_LOOP('',(#142));
#144=FACE_BOUND('',#143,.T.);
#145=CARTESIAN_POINT('',(-0.,0.,-7.));
#146=VERTEX_POINT('',#145);
#147=CARTESIAN_POINT('',(0.,0.,7.));
#148=VERTEX_POINT('',#147);
#149=CARTESIAN_POINT('',(0.,0.,0.));
#150=DIRECTION('',(0.,-1.,0.));
#151=DIRECTION('',(0.,0.,-1.));
#152=AXIS2_PLACEMENT_3D('',#149,#150,#151);
#153=CIRCLE('',#152,7.);
#154=EDGE_CURVE('',#146,#148,#153,.T.);
#155=ORIENTED_EDGE('',*,*,#154,.T.);
#156=CARTESIAN_POINT('',(0.,0.,0.));
#157=DIRECTION('',(0.,-1.,0.));
#158=DIRECTION('',(0.,0.,-1.));
#159=AXIS2_PLACEMENT_3D('',#156,#157,#158);
#160=CIRCLE('',#159,7.);
#161=EDGE_CURVE('',#148,#146,#160,.T.);
#162=ORIENTED_EDGE('',*,*,#161,.T.);
#163=EDGE_LOOP('',(#155,#162));
#164=FACE_BOUND('',#163,.T.);
#165=ADVANCED_FACE('',(#144,#164),#133,.T.);
#166=CARTESIAN_POINT('',(0.,0.,0.));
#167=DIRECTION('',(0.,1.,0.));
#168=DIRECTION('',(0.,-0.,1.));
#169=AXIS2_PLACEMENT_3D('',#166,#167,#168);
#170=CONICAL_SURFACE('',#169,7.,45.);
#171=CARTESIAN_POINT('',(0.,1.4,8.4));
#172=VERTEX_POINT('',#171);
#173=CARTESIAN_POINT('',(0.,1.4,8.4));
#174=DIRECTION('',(-0.,-0.707106781,-0.707106781));
#175=VECTOR('',#174,1.979898987);
#176=LINE('',#173,#175);
#177=EDGE_CURVE('',#172,#148,#176,.T.);
#178=ORIENTED_EDGE('',*,*,#177,.T.);
#179=ORIENTED_EDGE('',*,*,#154,.F.);
#180=ORIENTED_EDGE('',*,*,#161,.F.);
#181=ORIENTED_EDGE('',*,*,#177,.F.);
#182=CARTESIAN_POINT('',(-0.,1.4,-8.4));
#183=VERTEX_POINT('',#182);
#184=CARTESIAN_POINT('',(0.,1.4,0.));
#185=DIRECTION('',(0.,-1.,0.));
#186=DIRECTION('',(0.,0.,-1.));
#187=AXIS2_PLACEMENT_3D('',#184,#185,#186);
#188=CIRCLE('',#187,8.4);
#189=EDGE_CURVE('',#172,#183,#188,.T.);
#190=ORIENTED_EDGE('',*,*,#189,.T.);
#191=CARTESIAN_POINT('',(0.,1.4,0.));
#192=DIRECTION('',(0.,-1.,0.));
#193=DIRECTION('',(0.,0.,-1.));
#194=AXIS2_PLACEMENT_3D('',#191,#192,#193);
#195=CIRCLE('',#194,8.4);
#196=EDGE_CURVE('',#183,#172,#195,.T.);
#197=ORIENTED_EDGE('',*,*,#196,.T.);
#198=EDGE_LOOP('',(#178,#179,#180,#181,#190,#197));
#199=FACE_BOUND('',#198,.T.);
#200=ADVANCED_FACE('',(#199),#170,.T.);
#201=CARTESIAN_POINT('',(0.,0.,0.));
#202=DIRECTION('',(0.,-1.,0.));
#203=DIRECTION('',(0.,0.,-1.));
#204=AXIS2_PLACEMENT_3D('',#201,#202,#203);
#205=CYLINDRICAL_SURFACE('',#204,8.4);
#206=CARTESIAN_POINT('',(-0.,36.6,-8.4));
#207=VERTEX_POINT('',#206);
#208=CARTESIAN_POINT('',(0.,1.4,-8.4));
#209=DIRECTION('',(-0.,1.,-0.));
#210=VECTOR('',#209,35.2);
#211=LINE('',#208,#210);
#212=EDGE_CURVE('',#183,#207,#211,.T.);
#213=ORIENTED_EDGE('',*,*,#212,.T.);
#214=CARTESIAN_POINT('',(0.,36.6,0.));
#215=DIRECTION('',(0.,-1.,0.));
#216=DIRECTION('',(0.,0.,-1.));
#217=AXIS2_PLACEMENT_3D('',#214,#215,#216);
#218=CIRCLE('',#217,8.4);
#219=EDGE_CURVE('',#207,#207,#218,.T.);
#220=ORIENTED_EDGE('',*,*,#219,.T.);
#221=ORIENTED_EDGE('',*,*,#212,.F.);
#222=ORIENTED_EDGE('',*,*,#189,.F.);
#223=ORIENTED_EDGE('',*,*,#196,.F.);
#224=EDGE_LOOP('',(#213,#220,#221,#222,#223));
#225=FACE_BOUND('',#224,.T.);
#226=ADVANCED_FACE('',(#225),#205,.T.);
#227=CARTESIAN_POINT('',(0.,36.6,0.));
#228=DIRECTION('',(0.,-1.,0.));
#229=DIRECTION('',(0.,0.,-1.));
#230=AXIS2_PLACEMENT_3D('',#227,#228,#229);
#231=CONICAL_SURFACE('',#230,8.4,45.);
#232=CARTESIAN_POINT('',(0.,36.6,-8.4));
#233=DIRECTION('',(-0.,0.707106781,0.707106781));
#234=VECTOR('',#233,1.979898987);
#235=LINE('',#232,#234);
#236=EDGE_CURVE('',#207,#76,#235,.T.);
#237=ORIENTED_EDGE('',*,*,#236,.T.);
#238=ORIENTED_EDGE('',*,*,#82,.T.);
#239=ORIENTED_EDGE('',*,*,#236,.F.);
#240=ORIENTED_EDGE('',*,*,#219,.F.);
#241=EDGE_LOOP('',(#237,#238,#239,#240));
#242=FACE_BOUND('',#241,.T.);
#243=ADVANCED_FACE('',(#242),#231,.T.);
#244=CARTESIAN_POINT('',(0.,0.3,0.));
#245=DIRECTION('',(0.,-1.,0.));
#246=DIRECTION('',(0.,0.,-1.));
#247=AXIS2_PLACEMENT_3D('',#244,#245,#246);
#248=CONICAL_SURFACE('',#247,5.2,45.);
#249=CARTESIAN_POINT('',(0.,-0.,-5.5));
#250=DIRECTION('',(-0.,0.707106781,0.707106781));
#251=VECTOR('',#250,0.424264069);
#252=LINE('',#249,#251);
#253=EDGE_CURVE('',#135,#93,#252,.T.);
#254=ORIENTED_EDGE('',*,*,#253,.F.);
#255=ORIENTED_EDGE('',*,*,#141,.F.);
#256=ORIENTED_EDGE('',*,*,#253,.T.);
#257=ORIENTED_EDGE('',*,*,#107,.F.);
#258=EDGE_LOOP('',(#254,#255,#256,#257));
#259=FACE_BOUND('',#258,.T.);
#260=ADVANCED_FACE('',(#259),#248,.F.);
#261=CARTESIAN_POINT('',(0.,38.,0.));
#262=DIRECTION('',(0.,1.,0.));
#263=DIRECTION('',(0.,-0.,1.));
#264=AXIS2_PLACEMENT_3D('',#261,#262,#263);
#265=CONICAL_SURFACE('',#264,5.5,45.);
#266=CARTESIAN_POINT('',(0.,38.,5.5));
#267=DIRECTION('',(-0.,-0.707106781,-0.707106781));
#268=VECTOR('',#267,0.424264069);
#269=LINE('',#266,#268);
#270=EDGE_CURVE('',#65,#111,#269,.T.);
#271=ORIENTED_EDGE('',*,*,#270,.F.);
#272=ORIENTED_EDGE('',*,*,#71,.F.);
#273=ORIENTED_EDGE('',*,*,#270,.T.);
#274=ORIENTED_EDGE('',*,*,#117,.F.);
#275=ORIENTED_EDGE('',*,*,#124,.F.);
#276=EDGE_LOOP('',(#271,#272,#273,#274,#275));
#277=FACE_BOUND('',#276,.T.);
#278=ADVANCED_FACE('',(#277),#265,.F.);
#279=CLOSED_SHELL('',(#86,#128,#165,#200,#226,#243,#260,#278));
#280=MANIFOLD_SOLID_BREP('Imported 01',#279);
#281=COLOUR_RGB('',0.792156875,0.819607854,0.933333337);
#282=FILL_AREA_STYLE_COLOUR('',#281);
#283=FILL_AREA_STYLE('',(#282));
#284=SURFACE_STYLE_FILL_AREA(#283);
#285=SURFACE_SIDE_STYLE('',(#284));
#286=SURFACE_STYLE_USAGE(.BOTH.,#285);
#287=PRESENTATION_STYLE_ASSIGNMENT((#286));
#58=STYLED_ITEM('',(#287),#280);
#39=SHAPE_REPRESENTATION('spacer-ID10-OD16-L38.SLDPRT',(#38),#33);
#40=ADVANCED_BREP_SHAPE_REPRESENTATION('spacer-ID10-OD16-L38.SLDPRT',(#280),#33);
#295=SHAPE_REPRESENTATION_RELATIONSHIP('','',#39,#40);
#296=APPLICATION_CONTEXT('configuration controlled 3D design of mechanical parts and assemblies');
#297=APPLICATION_PROTOCOL_DEFINITION('international standard','configuration_control_3d_design_ed2_mim',2004,#296);
#298=PRODUCT_CONTEXT('',#296,'mechanical');
#299=PRODUCT_DEFINITION_CONTEXT('part definition',#296,'design');
#47=PRODUCT('0','0','',(#298));
#300=PRODUCT_RELATED_PRODUCT_CATEGORY('part','',(#47));
#301=PRODUCT_DEFINITION_FORMATION_WITH_SPECIFIED_SOURCE('','',#47,.NOT_KNOWN.);
#48=PRODUCT_DEFINITION('design','',#301,#299);
#46=PRODUCT_DEFINITION_SHAPE('','',#48);
#302=SHAPE_DEFINITION_REPRESENTATION(#46,#39);
#34=DRAUGHTING_MODEL('',(),#33);
#16=SHAPE_REPRESENTATION('/var/folders/_6/82lv31f15s971197f1211g200000gn/T/com.shapr3d.shapr/BF462D1F-EC06-4E14-8E6E-6B21C8A27C2D.tmp',(#15,#52),#10);
#24=PRODUCT('/var/folders/_6/82lv31f15s971197f1211g200000gn/T/com.shapr3d.shapr/BF462D1F-EC06-4E14-8E6E-6B21C8A27C2D.tmp','/var/folders/_6/82lv31f15s971197f1211g200000gn/T/com.shapr3d.shapr/BF462D1F-EC06-4E14-8E6E-6B21C8A27C2D.tmp','',(#298));
#303=PRODUCT_RELATED_PRODUCT_CATEGORY('part','',(#24));
#304=PRODUCT_DEFINITION_FORMATION_WITH_SPECIFIED_SOURCE('','',#24,.NOT_KNOWN.);
#25=PRODUCT_DEFINITION('design','',#304,#299);
#23=PRODUCT_DEFINITION_SHAPE('','',#25);
#305=SHAPE_DEFINITION_REPRESENTATION(#23,#16);
#11=DRAUGHTING_MODEL('',(),#10);
#1=MECHANICAL_DESIGN_GEOMETRIC_PRESENTATION_REPRESENTATION('',(#58),#10);
ENDSEC;
END-ISO-10303-21;
