ISO-10303-21;
HEADER;
/* Generated by software containing ST-Developer
 * from STEP Tools, Inc. (www.steptools.com) 
 */

FILE_DESCRIPTION(
/* description */ (''),
/* implementation_level */ '2;1');

FILE_NAME(
/* name */ 'C:/Users/conne/Desktop/BN Fixed Baseplate Riser - 6mm.step',

/* time_stamp */ '2021-03-17T18:26:10-05:00',
/* author */ (''),
/* organization */ (''),
/* preprocessor_version */ 'ST-DEVELOPER v18.1',
/* originating_system */ 'Autodesk Translation Framework v9.10.0.1330',

/* authorisation */ '');

FILE_SCHEMA (('AUTOMOTIVE_DESIGN { 1 0 10303 214 3 1 1 }'));
ENDSEC;

DATA;
#10=MECHANICAL_DESIGN_GEOMETRIC_PRESENTATION_REPRESENTATION('',(#17),#571);
#11=ITEM_DEFINED_TRANSFORMATION($,$,#339,#376);
#12=(
REPRESENTATION_RELATIONSHIP($,$,#582,#581)
REPRESENTATION_RELATIONSHIP_WITH_TRANSFORMATION(#11)
SHAPE_REPRESENTATION_RELATIONSHIP()
);
#13=CONTEXT_DEPENDENT_SHAPE_REPRESENTATION(#12,#580);
#14=NEXT_ASSEMBLY_USAGE_OCCURRENCE('6mm Riser:1','6mm Riser:1',
'6mm Riser:1',#584,#585,'6mm Riser:1');
#15=SHAPE_REPRESENTATION_RELATIONSHIP('SRR','None',#582,#16);
#16=ADVANCED_BREP_SHAPE_REPRESENTATION('',(#18),#570);
#17=STYLED_ITEM('',(#595),#18);
#18=MANIFOLD_SOLID_BREP('Body1',#325);
#19=FACE_BOUND('',#56,.T.);
#20=FACE_BOUND('',#57,.T.);
#21=FACE_BOUND('',#58,.T.);
#22=FACE_BOUND('',#59,.T.);
#23=FACE_BOUND('',#60,.T.);
#24=FACE_BOUND('',#61,.T.);
#25=FACE_BOUND('',#75,.T.);
#26=FACE_BOUND('',#76,.T.);
#27=FACE_BOUND('',#77,.T.);
#28=FACE_BOUND('',#78,.T.);
#29=FACE_BOUND('',#79,.T.);
#30=FACE_BOUND('',#80,.T.);
#31=PLANE('',#343);
#32=PLANE('',#344);
#33=PLANE('',#356);
#34=PLANE('',#359);
#35=PLANE('',#374);
#36=PLANE('',#375);
#37=FACE_OUTER_BOUND('',#53,.T.);
#38=FACE_OUTER_BOUND('',#54,.T.);
#39=FACE_OUTER_BOUND('',#55,.T.);
#40=FACE_OUTER_BOUND('',#62,.T.);
#41=FACE_OUTER_BOUND('',#63,.T.);
#42=FACE_OUTER_BOUND('',#64,.T.);
#43=FACE_OUTER_BOUND('',#65,.T.);
#44=FACE_OUTER_BOUND('',#66,.T.);
#45=FACE_OUTER_BOUND('',#67,.T.);
#46=FACE_OUTER_BOUND('',#68,.T.);
#47=FACE_OUTER_BOUND('',#69,.T.);
#48=FACE_OUTER_BOUND('',#70,.T.);
#49=FACE_OUTER_BOUND('',#71,.T.);
#50=FACE_OUTER_BOUND('',#72,.T.);
#51=FACE_OUTER_BOUND('',#73,.T.);
#52=FACE_OUTER_BOUND('',#74,.T.);
#53=EDGE_LOOP('',(#215,#216,#217,#218));
#54=EDGE_LOOP('',(#219,#220,#221,#222));
#55=EDGE_LOOP('',(#223,#224,#225,#226,#227,#228,#229,#230));
#56=EDGE_LOOP('',(#231));
#57=EDGE_LOOP('',(#232));
#58=EDGE_LOOP('',(#233));
#59=EDGE_LOOP('',(#234));
#60=EDGE_LOOP('',(#235));
#61=EDGE_LOOP('',(#236));
#62=EDGE_LOOP('',(#237,#238,#239,#240));
#63=EDGE_LOOP('',(#241,#242,#243,#244));
#64=EDGE_LOOP('',(#245,#246,#247,#248));
#65=EDGE_LOOP('',(#249,#250,#251,#252));
#66=EDGE_LOOP('',(#253,#254,#255,#256));
#67=EDGE_LOOP('',(#257,#258,#259,#260));
#68=EDGE_LOOP('',(#261,#262,#263,#264));
#69=EDGE_LOOP('',(#265,#266,#267,#268));
#70=EDGE_LOOP('',(#269,#270,#271,#272));
#71=EDGE_LOOP('',(#273,#274,#275,#276));
#72=EDGE_LOOP('',(#277,#278,#279,#280));
#73=EDGE_LOOP('',(#281,#282,#283,#284));
#74=EDGE_LOOP('',(#285,#286,#287,#288,#289,#290,#291,#292));
#75=EDGE_LOOP('',(#293));
#76=EDGE_LOOP('',(#294));
#77=EDGE_LOOP('',(#295));
#78=EDGE_LOOP('',(#296));
#79=EDGE_LOOP('',(#297));
#80=EDGE_LOOP('',(#298));
#81=LINE('',#484,#103);
#82=LINE('',#487,#104);
#83=LINE('',#490,#105);
#84=LINE('',#492,#106);
#85=LINE('',#493,#107);
#86=LINE('',#496,#108);
#87=LINE('',#500,#109);
#88=LINE('',#504,#110);
#89=LINE('',#520,#111);
#90=LINE('',#524,#112);
#91=LINE('',#525,#113);
#92=LINE('',#528,#114);
#93=LINE('',#532,#115);
#94=LINE('',#533,#116);
#95=LINE('',#536,#117);
#96=LINE('',#540,#118);
#97=LINE('',#544,#119);
#98=LINE('',#548,#120);
#99=LINE('',#552,#121);
#100=LINE('',#556,#122);
#101=LINE('',#560,#123);
#102=LINE('',#563,#124);
#103=VECTOR('',#385,10.);
#104=VECTOR('',#388,10.);
#105=VECTOR('',#391,10.);
#106=VECTOR('',#392,10.);
#107=VECTOR('',#393,10.);
#108=VECTOR('',#396,10.);
#109=VECTOR('',#399,10.);
#110=VECTOR('',#402,10.);
#111=VECTOR('',#419,10.);
#112=VECTOR('',#424,10.);
#113=VECTOR('',#425,10.);
#114=VECTOR('',#428,10.);
#115=VECTOR('',#433,10.);
#116=VECTOR('',#434,10.);
#117=VECTOR('',#437,10.);
#118=VECTOR('',#442,2.75);
#119=VECTOR('',#447,2.75);
#120=VECTOR('',#452,2.75);
#121=VECTOR('',#457,2.75);
#122=VECTOR('',#462,2.75);
#123=VECTOR('',#467,2.75);
#124=VECTOR('',#472,10.);
#125=CIRCLE('',#341,4.);
#126=CIRCLE('',#342,4.);
#127=CIRCLE('',#345,4.);
#128=CIRCLE('',#346,4.);
#129=CIRCLE('',#347,4.);
#130=CIRCLE('',#348,2.75);
#131=CIRCLE('',#349,2.75);
#132=CIRCLE('',#350,2.75);
#133=CIRCLE('',#351,2.75);
#134=CIRCLE('',#352,2.75);
#135=CIRCLE('',#353,2.75);
#136=CIRCLE('',#355,4.);
#137=CIRCLE('',#358,4.);
#138=CIRCLE('',#361,4.);
#139=CIRCLE('',#363,2.75);
#140=CIRCLE('',#365,2.75);
#141=CIRCLE('',#367,2.75);
#142=CIRCLE('',#369,2.75);
#143=CIRCLE('',#371,2.75);
#144=CIRCLE('',#373,2.75);
#145=VERTEX_POINT('',#480);
#146=VERTEX_POINT('',#481);
#147=VERTEX_POINT('',#483);
#148=VERTEX_POINT('',#485);
#149=VERTEX_POINT('',#489);
#150=VERTEX_POINT('',#491);
#151=VERTEX_POINT('',#495);
#152=VERTEX_POINT('',#497);
#153=VERTEX_POINT('',#499);
#154=VERTEX_POINT('',#501);
#155=VERTEX_POINT('',#503);
#156=VERTEX_POINT('',#506);
#157=VERTEX_POINT('',#508);
#158=VERTEX_POINT('',#510);
#159=VERTEX_POINT('',#512);
#160=VERTEX_POINT('',#514);
#161=VERTEX_POINT('',#516);
#162=VERTEX_POINT('',#519);
#163=VERTEX_POINT('',#523);
#164=VERTEX_POINT('',#527);
#165=VERTEX_POINT('',#531);
#166=VERTEX_POINT('',#535);
#167=VERTEX_POINT('',#539);
#168=VERTEX_POINT('',#543);
#169=VERTEX_POINT('',#547);
#170=VERTEX_POINT('',#551);
#171=VERTEX_POINT('',#555);
#172=VERTEX_POINT('',#559);
#173=EDGE_CURVE('',#145,#146,#125,.T.);
#174=EDGE_CURVE('',#146,#147,#81,.T.);
#175=EDGE_CURVE('',#147,#148,#126,.T.);
#176=EDGE_CURVE('',#148,#145,#82,.T.);
#177=EDGE_CURVE('',#149,#146,#83,.T.);
#178=EDGE_CURVE('',#150,#149,#84,.T.);
#179=EDGE_CURVE('',#150,#147,#85,.T.);
#180=EDGE_CURVE('',#145,#151,#86,.T.);
#181=EDGE_CURVE('',#152,#151,#127,.T.);
#182=EDGE_CURVE('',#152,#153,#87,.T.);
#183=EDGE_CURVE('',#154,#153,#128,.T.);
#184=EDGE_CURVE('',#154,#155,#88,.T.);
#185=EDGE_CURVE('',#149,#155,#129,.T.);
#186=EDGE_CURVE('',#156,#156,#130,.T.);
#187=EDGE_CURVE('',#157,#157,#131,.T.);
#188=EDGE_CURVE('',#158,#158,#132,.T.);
#189=EDGE_CURVE('',#159,#159,#133,.T.);
#190=EDGE_CURVE('',#160,#160,#134,.T.);
#191=EDGE_CURVE('',#161,#161,#135,.T.);
#192=EDGE_CURVE('',#155,#162,#89,.T.);
#193=EDGE_CURVE('',#162,#150,#136,.T.);
#194=EDGE_CURVE('',#163,#154,#90,.T.);
#195=EDGE_CURVE('',#163,#162,#91,.T.);
#196=EDGE_CURVE('',#153,#164,#92,.T.);
#197=EDGE_CURVE('',#164,#163,#137,.T.);
#198=EDGE_CURVE('',#165,#152,#93,.T.);
#199=EDGE_CURVE('',#165,#164,#94,.T.);
#200=EDGE_CURVE('',#151,#166,#95,.T.);
#201=EDGE_CURVE('',#166,#165,#138,.T.);
#202=EDGE_CURVE('',#161,#167,#96,.T.);
#203=EDGE_CURVE('',#167,#167,#139,.T.);
#204=EDGE_CURVE('',#160,#168,#97,.T.);
#205=EDGE_CURVE('',#168,#168,#140,.T.);
#206=EDGE_CURVE('',#159,#169,#98,.T.);
#207=EDGE_CURVE('',#169,#169,#141,.T.);
#208=EDGE_CURVE('',#158,#170,#99,.T.);
#209=EDGE_CURVE('',#170,#170,#142,.T.);
#210=EDGE_CURVE('',#157,#171,#100,.T.);
#211=EDGE_CURVE('',#171,#171,#143,.T.);
#212=EDGE_CURVE('',#156,#172,#101,.T.);
#213=EDGE_CURVE('',#172,#172,#144,.T.);
#214=EDGE_CURVE('',#148,#166,#102,.T.);
#215=ORIENTED_EDGE('',*,*,#173,.T.);
#216=ORIENTED_EDGE('',*,*,#174,.T.);
#217=ORIENTED_EDGE('',*,*,#175,.T.);
#218=ORIENTED_EDGE('',*,*,#176,.T.);
#219=ORIENTED_EDGE('',*,*,#174,.F.);
#220=ORIENTED_EDGE('',*,*,#177,.F.);
#221=ORIENTED_EDGE('',*,*,#178,.F.);
#222=ORIENTED_EDGE('',*,*,#179,.T.);
#223=ORIENTED_EDGE('',*,*,#173,.F.);
#224=ORIENTED_EDGE('',*,*,#180,.T.);
#225=ORIENTED_EDGE('',*,*,#181,.F.);
#226=ORIENTED_EDGE('',*,*,#182,.T.);
#227=ORIENTED_EDGE('',*,*,#183,.F.);
#228=ORIENTED_EDGE('',*,*,#184,.T.);
#229=ORIENTED_EDGE('',*,*,#185,.F.);
#230=ORIENTED_EDGE('',*,*,#177,.T.);
#231=ORIENTED_EDGE('',*,*,#186,.T.);
#232=ORIENTED_EDGE('',*,*,#187,.T.);
#233=ORIENTED_EDGE('',*,*,#188,.T.);
#234=ORIENTED_EDGE('',*,*,#189,.T.);
#235=ORIENTED_EDGE('',*,*,#190,.T.);
#236=ORIENTED_EDGE('',*,*,#191,.T.);
#237=ORIENTED_EDGE('',*,*,#185,.T.);
#238=ORIENTED_EDGE('',*,*,#192,.T.);
#239=ORIENTED_EDGE('',*,*,#193,.T.);
#240=ORIENTED_EDGE('',*,*,#178,.T.);
#241=ORIENTED_EDGE('',*,*,#192,.F.);
#242=ORIENTED_EDGE('',*,*,#184,.F.);
#243=ORIENTED_EDGE('',*,*,#194,.F.);
#244=ORIENTED_EDGE('',*,*,#195,.T.);
#245=ORIENTED_EDGE('',*,*,#183,.T.);
#246=ORIENTED_EDGE('',*,*,#196,.T.);
#247=ORIENTED_EDGE('',*,*,#197,.T.);
#248=ORIENTED_EDGE('',*,*,#194,.T.);
#249=ORIENTED_EDGE('',*,*,#196,.F.);
#250=ORIENTED_EDGE('',*,*,#182,.F.);
#251=ORIENTED_EDGE('',*,*,#198,.F.);
#252=ORIENTED_EDGE('',*,*,#199,.T.);
#253=ORIENTED_EDGE('',*,*,#181,.T.);
#254=ORIENTED_EDGE('',*,*,#200,.T.);
#255=ORIENTED_EDGE('',*,*,#201,.T.);
#256=ORIENTED_EDGE('',*,*,#198,.T.);
#257=ORIENTED_EDGE('',*,*,#191,.F.);
#258=ORIENTED_EDGE('',*,*,#202,.T.);
#259=ORIENTED_EDGE('',*,*,#203,.T.);
#260=ORIENTED_EDGE('',*,*,#202,.F.);
#261=ORIENTED_EDGE('',*,*,#190,.F.);
#262=ORIENTED_EDGE('',*,*,#204,.T.);
#263=ORIENTED_EDGE('',*,*,#205,.T.);
#264=ORIENTED_EDGE('',*,*,#204,.F.);
#265=ORIENTED_EDGE('',*,*,#189,.F.);
#266=ORIENTED_EDGE('',*,*,#206,.T.);
#267=ORIENTED_EDGE('',*,*,#207,.T.);
#268=ORIENTED_EDGE('',*,*,#206,.F.);
#269=ORIENTED_EDGE('',*,*,#188,.F.);
#270=ORIENTED_EDGE('',*,*,#208,.T.);
#271=ORIENTED_EDGE('',*,*,#209,.T.);
#272=ORIENTED_EDGE('',*,*,#208,.F.);
#273=ORIENTED_EDGE('',*,*,#187,.F.);
#274=ORIENTED_EDGE('',*,*,#210,.T.);
#275=ORIENTED_EDGE('',*,*,#211,.T.);
#276=ORIENTED_EDGE('',*,*,#210,.F.);
#277=ORIENTED_EDGE('',*,*,#186,.F.);
#278=ORIENTED_EDGE('',*,*,#212,.T.);
#279=ORIENTED_EDGE('',*,*,#213,.T.);
#280=ORIENTED_EDGE('',*,*,#212,.F.);
#281=ORIENTED_EDGE('',*,*,#176,.F.);
#282=ORIENTED_EDGE('',*,*,#214,.T.);
#283=ORIENTED_EDGE('',*,*,#200,.F.);
#284=ORIENTED_EDGE('',*,*,#180,.F.);
#285=ORIENTED_EDGE('',*,*,#175,.F.);
#286=ORIENTED_EDGE('',*,*,#179,.F.);
#287=ORIENTED_EDGE('',*,*,#193,.F.);
#288=ORIENTED_EDGE('',*,*,#195,.F.);
#289=ORIENTED_EDGE('',*,*,#197,.F.);
#290=ORIENTED_EDGE('',*,*,#199,.F.);
#291=ORIENTED_EDGE('',*,*,#201,.F.);
#292=ORIENTED_EDGE('',*,*,#214,.F.);
#293=ORIENTED_EDGE('',*,*,#213,.F.);
#294=ORIENTED_EDGE('',*,*,#211,.F.);
#295=ORIENTED_EDGE('',*,*,#209,.F.);
#296=ORIENTED_EDGE('',*,*,#207,.F.);
#297=ORIENTED_EDGE('',*,*,#205,.F.);
#298=ORIENTED_EDGE('',*,*,#203,.F.);
#299=CYLINDRICAL_SURFACE('',#340,4.);
#300=CYLINDRICAL_SURFACE('',#354,4.);
#301=CYLINDRICAL_SURFACE('',#357,4.);
#302=CYLINDRICAL_SURFACE('',#360,4.);
#303=CYLINDRICAL_SURFACE('',#362,2.75);
#304=CYLINDRICAL_SURFACE('',#364,2.75);
#305=CYLINDRICAL_SURFACE('',#366,2.75);
#306=CYLINDRICAL_SURFACE('',#368,2.75);
#307=CYLINDRICAL_SURFACE('',#370,2.75);
#308=CYLINDRICAL_SURFACE('',#372,2.75);
#309=ADVANCED_FACE('',(#37),#299,.T.);
#310=ADVANCED_FACE('',(#38),#31,.T.);
#311=ADVANCED_FACE('',(#39,#19,#20,#21,#22,#23,#24),#32,.T.);
#312=ADVANCED_FACE('',(#40),#300,.T.);
#313=ADVANCED_FACE('',(#41),#33,.T.);
#314=ADVANCED_FACE('',(#42),#301,.T.);
#315=ADVANCED_FACE('',(#43),#34,.T.);
#316=ADVANCED_FACE('',(#44),#302,.T.);
#317=ADVANCED_FACE('',(#45),#303,.F.);
#318=ADVANCED_FACE('',(#46),#304,.F.);
#319=ADVANCED_FACE('',(#47),#305,.F.);
#320=ADVANCED_FACE('',(#48),#306,.F.);
#321=ADVANCED_FACE('',(#49),#307,.F.);
#322=ADVANCED_FACE('',(#50),#308,.F.);
#323=ADVANCED_FACE('',(#51),#35,.T.);
#324=ADVANCED_FACE('',(#52,#25,#26,#27,#28,#29,#30),#36,.F.);
#325=CLOSED_SHELL('',(#309,#310,#311,#312,#313,#314,#315,#316,#317,#318,
#319,#320,#321,#322,#323,#324));
#326=DERIVED_UNIT_ELEMENT(#328,1.);
#327=DERIVED_UNIT_ELEMENT(#573,-3.);
#328=(
MASS_UNIT()
NAMED_UNIT(*)
SI_UNIT(.KILO.,.GRAM.)
);
#329=DERIVED_UNIT((#326,#327));
#330=MEASURE_REPRESENTATION_ITEM('density measure',
POSITIVE_RATIO_MEASURE(7850.),#329);
#331=PROPERTY_DEFINITION_REPRESENTATION(#336,#333);
#332=PROPERTY_DEFINITION_REPRESENTATION(#337,#334);
#333=REPRESENTATION('material name',(#335),#570);
#334=REPRESENTATION('density',(#330),#570);
#335=DESCRIPTIVE_REPRESENTATION_ITEM('Steel','Steel');
#336=PROPERTY_DEFINITION('material property','material name',#585);
#337=PROPERTY_DEFINITION('material property','density of part',#585);
#338=AXIS2_PLACEMENT_3D('placement',#477,#377,#378);
#339=AXIS2_PLACEMENT_3D('placement',#478,#379,#380);
#340=AXIS2_PLACEMENT_3D('',#479,#381,#382);
#341=AXIS2_PLACEMENT_3D('',#482,#383,#384);
#342=AXIS2_PLACEMENT_3D('',#486,#386,#387);
#343=AXIS2_PLACEMENT_3D('',#488,#389,#390);
#344=AXIS2_PLACEMENT_3D('',#494,#394,#395);
#345=AXIS2_PLACEMENT_3D('',#498,#397,#398);
#346=AXIS2_PLACEMENT_3D('',#502,#400,#401);
#347=AXIS2_PLACEMENT_3D('',#505,#403,#404);
#348=AXIS2_PLACEMENT_3D('',#507,#405,#406);
#349=AXIS2_PLACEMENT_3D('',#509,#407,#408);
#350=AXIS2_PLACEMENT_3D('',#511,#409,#410);
#351=AXIS2_PLACEMENT_3D('',#513,#411,#412);
#352=AXIS2_PLACEMENT_3D('',#515,#413,#414);
#353=AXIS2_PLACEMENT_3D('',#517,#415,#416);
#354=AXIS2_PLACEMENT_3D('',#518,#417,#418);
#355=AXIS2_PLACEMENT_3D('',#521,#420,#421);
#356=AXIS2_PLACEMENT_3D('',#522,#422,#423);
#357=AXIS2_PLACEMENT_3D('',#526,#426,#427);
#358=AXIS2_PLACEMENT_3D('',#529,#429,#430);
#359=AXIS2_PLACEMENT_3D('',#530,#431,#432);
#360=AXIS2_PLACEMENT_3D('',#534,#435,#436);
#361=AXIS2_PLACEMENT_3D('',#537,#438,#439);
#362=AXIS2_PLACEMENT_3D('',#538,#440,#441);
#363=AXIS2_PLACEMENT_3D('',#541,#443,#444);
#364=AXIS2_PLACEMENT_3D('',#542,#445,#446);
#365=AXIS2_PLACEMENT_3D('',#545,#448,#449);
#366=AXIS2_PLACEMENT_3D('',#546,#450,#451);
#367=AXIS2_PLACEMENT_3D('',#549,#453,#454);
#368=AXIS2_PLACEMENT_3D('',#550,#455,#456);
#369=AXIS2_PLACEMENT_3D('',#553,#458,#459);
#370=AXIS2_PLACEMENT_3D('',#554,#460,#461);
#371=AXIS2_PLACEMENT_3D('',#557,#463,#464);
#372=AXIS2_PLACEMENT_3D('',#558,#465,#466);
#373=AXIS2_PLACEMENT_3D('',#561,#468,#469);
#374=AXIS2_PLACEMENT_3D('',#562,#470,#471);
#375=AXIS2_PLACEMENT_3D('',#564,#473,#474);
#376=AXIS2_PLACEMENT_3D('',#565,#475,#476);
#377=DIRECTION('axis',(0.,0.,1.));
#378=DIRECTION('refdir',(1.,0.,0.));
#379=DIRECTION('axis',(0.,0.,1.));
#380=DIRECTION('refdir',(1.,0.,0.));
#381=DIRECTION('center_axis',(0.,1.,0.));
#382=DIRECTION('ref_axis',(0.707106781186548,0.,-0.707106781186548));
#383=DIRECTION('center_axis',(0.,-1.,0.));
#384=DIRECTION('ref_axis',(0.707106781186548,0.,-0.707106781186548));
#385=DIRECTION('',(0.,-1.,0.));
#386=DIRECTION('center_axis',(0.,1.,0.));
#387=DIRECTION('ref_axis',(0.707106781186548,0.,-0.707106781186548));
#388=DIRECTION('',(0.,1.,0.));
#389=DIRECTION('center_axis',(1.,0.,0.));
#390=DIRECTION('ref_axis',(0.,0.,-1.));
#391=DIRECTION('',(0.,0.,-1.));
#392=DIRECTION('',(0.,1.,0.));
#393=DIRECTION('',(0.,0.,-1.));
#394=DIRECTION('center_axis',(0.,1.,0.));
#395=DIRECTION('ref_axis',(1.,0.,0.));
#396=DIRECTION('',(-1.,0.,0.));
#397=DIRECTION('center_axis',(0.,-1.,0.));
#398=DIRECTION('ref_axis',(-0.707106781186547,0.,-0.707106781186548));
#399=DIRECTION('',(-3.16050042155854E-33,0.,1.));
#400=DIRECTION('center_axis',(0.,-1.,0.));
#401=DIRECTION('ref_axis',(-0.707106781186548,0.,0.707106781186547));
#402=DIRECTION('',(1.,0.,0.));
#403=DIRECTION('center_axis',(0.,-1.,0.));
#404=DIRECTION('ref_axis',(0.707106781186548,0.,0.707106781186547));
#405=DIRECTION('center_axis',(0.,-1.,0.));
#406=DIRECTION('ref_axis',(1.,0.,0.));
#407=DIRECTION('center_axis',(0.,-1.,0.));
#408=DIRECTION('ref_axis',(1.,0.,0.));
#409=DIRECTION('center_axis',(0.,-1.,0.));
#410=DIRECTION('ref_axis',(1.,0.,0.));
#411=DIRECTION('center_axis',(0.,-1.,0.));
#412=DIRECTION('ref_axis',(1.,0.,0.));
#413=DIRECTION('center_axis',(0.,-1.,0.));
#414=DIRECTION('ref_axis',(1.,0.,0.));
#415=DIRECTION('center_axis',(0.,-1.,0.));
#416=DIRECTION('ref_axis',(1.,0.,0.));
#417=DIRECTION('center_axis',(0.,1.,0.));
#418=DIRECTION('ref_axis',(0.707106781186548,0.,0.707106781186547));
#419=DIRECTION('',(0.,-1.,0.));
#420=DIRECTION('center_axis',(0.,1.,0.));
#421=DIRECTION('ref_axis',(0.707106781186548,0.,0.707106781186547));
#422=DIRECTION('center_axis',(0.,0.,1.));
#423=DIRECTION('ref_axis',(1.,0.,0.));
#424=DIRECTION('',(0.,1.,0.));
#425=DIRECTION('',(1.,0.,0.));
#426=DIRECTION('center_axis',(0.,1.,0.));
#427=DIRECTION('ref_axis',(-0.707106781186548,0.,0.707106781186547));
#428=DIRECTION('',(0.,-1.,0.));
#429=DIRECTION('center_axis',(0.,1.,0.));
#430=DIRECTION('ref_axis',(-0.707106781186548,0.,0.707106781186547));
#431=DIRECTION('center_axis',(-1.,0.,-3.16050042155854E-33));
#432=DIRECTION('ref_axis',(-3.16050042155854E-33,0.,1.));
#433=DIRECTION('',(0.,1.,0.));
#434=DIRECTION('',(-3.16050042155854E-33,0.,1.));
#435=DIRECTION('center_axis',(0.,1.,0.));
#436=DIRECTION('ref_axis',(-0.707106781186547,0.,-0.707106781186548));
#437=DIRECTION('',(0.,-1.,0.));
#438=DIRECTION('center_axis',(0.,1.,0.));
#439=DIRECTION('ref_axis',(-0.707106781186547,0.,-0.707106781186548));
#440=DIRECTION('center_axis',(0.,1.,0.));
#441=DIRECTION('ref_axis',(1.,0.,0.));
#442=DIRECTION('',(0.,-1.,0.));
#443=DIRECTION('center_axis',(0.,-1.,0.));
#444=DIRECTION('ref_axis',(1.,0.,0.));
#445=DIRECTION('center_axis',(0.,1.,0.));
#446=DIRECTION('ref_axis',(1.,0.,0.));
#447=DIRECTION('',(0.,-1.,0.));
#448=DIRECTION('center_axis',(0.,-1.,0.));
#449=DIRECTION('ref_axis',(1.,0.,0.));
#450=DIRECTION('center_axis',(0.,1.,0.));
#451=DIRECTION('ref_axis',(1.,0.,0.));
#452=DIRECTION('',(0.,-1.,0.));
#453=DIRECTION('center_axis',(0.,-1.,0.));
#454=DIRECTION('ref_axis',(1.,0.,0.));
#455=DIRECTION('center_axis',(0.,1.,0.));
#456=DIRECTION('ref_axis',(1.,0.,0.));
#457=DIRECTION('',(0.,-1.,0.));
#458=DIRECTION('center_axis',(0.,-1.,0.));
#459=DIRECTION('ref_axis',(1.,0.,0.));
#460=DIRECTION('center_axis',(0.,1.,0.));
#461=DIRECTION('ref_axis',(1.,0.,0.));
#462=DIRECTION('',(0.,-1.,0.));
#463=DIRECTION('center_axis',(0.,-1.,0.));
#464=DIRECTION('ref_axis',(1.,0.,0.));
#465=DIRECTION('center_axis',(0.,1.,0.));
#466=DIRECTION('ref_axis',(1.,0.,0.));
#467=DIRECTION('',(0.,-1.,0.));
#468=DIRECTION('center_axis',(0.,-1.,0.));
#469=DIRECTION('ref_axis',(1.,0.,0.));
#470=DIRECTION('center_axis',(0.,0.,-1.));
#471=DIRECTION('ref_axis',(-1.,0.,0.));
#472=DIRECTION('',(-1.,0.,0.));
#473=DIRECTION('center_axis',(0.,1.,0.));
#474=DIRECTION('ref_axis',(1.,0.,0.));
#475=DIRECTION('',(0.,0.,1.));
#476=DIRECTION('',(1.,0.,0.));
#477=CARTESIAN_POINT('',(0.,0.,0.));
#478=CARTESIAN_POINT('',(0.,0.,0.));
#479=CARTESIAN_POINT('Origin',(51.8,0.,-74.));
#480=CARTESIAN_POINT('',(51.8,6.,-78.));
#481=CARTESIAN_POINT('',(55.8,6.,-74.));
#482=CARTESIAN_POINT('Origin',(51.8,6.,-74.));
#483=CARTESIAN_POINT('',(55.8,0.,-74.));
#484=CARTESIAN_POINT('',(55.8,0.,-74.));
#485=CARTESIAN_POINT('',(51.8,0.,-78.));
#486=CARTESIAN_POINT('Origin',(51.8,0.,-74.));
#487=CARTESIAN_POINT('',(51.8,0.,-78.));
#488=CARTESIAN_POINT('Origin',(55.8,0.,0.));
#489=CARTESIAN_POINT('',(55.8,6.,-4.));
#490=CARTESIAN_POINT('',(55.8,6.,0.));
#491=CARTESIAN_POINT('',(55.8,0.,-4.));
#492=CARTESIAN_POINT('',(55.8,0.,-4.));
#493=CARTESIAN_POINT('',(55.8,0.,0.));
#494=CARTESIAN_POINT('Origin',(27.9,6.,-39.));
#495=CARTESIAN_POINT('',(4.,6.,-78.));
#496=CARTESIAN_POINT('',(55.8,6.,-78.));
#497=CARTESIAN_POINT('',(2.33877031195332E-31,6.,-74.));
#498=CARTESIAN_POINT('Origin',(4.,6.,-74.));
#499=CARTESIAN_POINT('',(1.26420016862342E-32,6.,-4.));
#500=CARTESIAN_POINT('',(2.46519032881566E-31,6.,-78.));
#501=CARTESIAN_POINT('',(4.,6.,0.));
#502=CARTESIAN_POINT('Origin',(4.,6.,-4.));
#503=CARTESIAN_POINT('',(51.8,6.,0.));
#504=CARTESIAN_POINT('',(0.,6.,0.));
#505=CARTESIAN_POINT('Origin',(51.8,6.,-4.));
#506=CARTESIAN_POINT('',(4.5125,6.,-7.25));
#507=CARTESIAN_POINT('Origin',(7.2625,6.,-7.25));
#508=CARTESIAN_POINT('',(45.7875,6.,-7.25));
#509=CARTESIAN_POINT('Origin',(48.5375,6.,-7.25));
#510=CARTESIAN_POINT('',(4.51249999999999,6.,-61.225));
#511=CARTESIAN_POINT('Origin',(7.2625,6.,-61.225));
#512=CARTESIAN_POINT('',(45.7875,6.,-70.75));
#513=CARTESIAN_POINT('Origin',(48.5375,6.,-70.75));
#514=CARTESIAN_POINT('',(4.5125,6.,-70.75));
#515=CARTESIAN_POINT('Origin',(7.2625,6.,-70.75));
#516=CARTESIAN_POINT('',(45.7875,6.,-61.225));
#517=CARTESIAN_POINT('Origin',(48.5375,6.,-61.225));
#518=CARTESIAN_POINT('Origin',(51.8,0.,-4.));
#519=CARTESIAN_POINT('',(51.8,0.,0.));
#520=CARTESIAN_POINT('',(51.8,0.,0.));
#521=CARTESIAN_POINT('Origin',(51.8,0.,-4.));
#522=CARTESIAN_POINT('Origin',(0.,0.,0.));
#523=CARTESIAN_POINT('',(4.,0.,0.));
#524=CARTESIAN_POINT('',(4.,0.,0.));
#525=CARTESIAN_POINT('',(0.,0.,0.));
#526=CARTESIAN_POINT('Origin',(4.,0.,-4.));
#527=CARTESIAN_POINT('',(1.26420016862342E-32,0.,-4.));
#528=CARTESIAN_POINT('',(0.,0.,-4.));
#529=CARTESIAN_POINT('Origin',(4.,0.,-4.));
#530=CARTESIAN_POINT('Origin',(2.46519032881566E-31,0.,-78.));
#531=CARTESIAN_POINT('',(2.33877031195332E-31,0.,-74.));
#532=CARTESIAN_POINT('',(0.,0.,-74.));
#533=CARTESIAN_POINT('',(2.46519032881566E-31,0.,-78.));
#534=CARTESIAN_POINT('Origin',(4.,0.,-74.));
#535=CARTESIAN_POINT('',(4.,0.,-78.));
#536=CARTESIAN_POINT('',(4.,0.,-78.));
#537=CARTESIAN_POINT('Origin',(4.,0.,-74.));
#538=CARTESIAN_POINT('Origin',(48.5375,0.,-61.225));
#539=CARTESIAN_POINT('',(45.7875,0.,-61.225));
#540=CARTESIAN_POINT('',(45.7875,0.,-61.225));
#541=CARTESIAN_POINT('Origin',(48.5375,0.,-61.225));
#542=CARTESIAN_POINT('Origin',(7.2625,0.,-70.75));
#543=CARTESIAN_POINT('',(4.5125,0.,-70.75));
#544=CARTESIAN_POINT('',(4.5125,0.,-70.75));
#545=CARTESIAN_POINT('Origin',(7.2625,0.,-70.75));
#546=CARTESIAN_POINT('Origin',(48.5375,0.,-70.75));
#547=CARTESIAN_POINT('',(45.7875,0.,-70.75));
#548=CARTESIAN_POINT('',(45.7875,0.,-70.75));
#549=CARTESIAN_POINT('Origin',(48.5375,0.,-70.75));
#550=CARTESIAN_POINT('Origin',(7.2625,0.,-61.225));
#551=CARTESIAN_POINT('',(4.51249999999999,0.,-61.225));
#552=CARTESIAN_POINT('',(4.51249999999999,0.,-61.225));
#553=CARTESIAN_POINT('Origin',(7.2625,0.,-61.225));
#554=CARTESIAN_POINT('Origin',(48.5375,0.,-7.25));
#555=CARTESIAN_POINT('',(45.7875,0.,-7.25));
#556=CARTESIAN_POINT('',(45.7875,0.,-7.25));
#557=CARTESIAN_POINT('Origin',(48.5375,0.,-7.25));
#558=CARTESIAN_POINT('Origin',(7.2625,0.,-7.25));
#559=CARTESIAN_POINT('',(4.5125,0.,-7.25));
#560=CARTESIAN_POINT('',(4.5125,0.,-7.25));
#561=CARTESIAN_POINT('Origin',(7.2625,0.,-7.25));
#562=CARTESIAN_POINT('Origin',(55.8,0.,-78.));
#563=CARTESIAN_POINT('',(55.8,0.,-78.));
#564=CARTESIAN_POINT('Origin',(27.9,0.,-39.));
#565=CARTESIAN_POINT('',(0.,0.,0.));
#566=UNCERTAINTY_MEASURE_WITH_UNIT(LENGTH_MEASURE(0.01),#572,
'DISTANCE_ACCURACY_VALUE',
'Maximum model space distance between geometric entities at asserted c
onnectivities');
#567=UNCERTAINTY_MEASURE_WITH_UNIT(LENGTH_MEASURE(0.01),#572,
'DISTANCE_ACCURACY_VALUE',
'Maximum model space distance between geometric entities at asserted c
onnectivities');
#568=UNCERTAINTY_MEASURE_WITH_UNIT(LENGTH_MEASURE(0.01),#572,
'DISTANCE_ACCURACY_VALUE',
'Maximum model space distance between geometric entities at asserted c
onnectivities');
#569=(
GEOMETRIC_REPRESENTATION_CONTEXT(3)
GLOBAL_UNCERTAINTY_ASSIGNED_CONTEXT((#566))
GLOBAL_UNIT_ASSIGNED_CONTEXT((#572,#574,#575))
REPRESENTATION_CONTEXT('','3D')
);
#570=(
GEOMETRIC_REPRESENTATION_CONTEXT(3)
GLOBAL_UNCERTAINTY_ASSIGNED_CONTEXT((#567))
GLOBAL_UNIT_ASSIGNED_CONTEXT((#572,#574,#575))
REPRESENTATION_CONTEXT('','3D')
);
#571=(
GEOMETRIC_REPRESENTATION_CONTEXT(3)
GLOBAL_UNCERTAINTY_ASSIGNED_CONTEXT((#568))
GLOBAL_UNIT_ASSIGNED_CONTEXT((#572,#574,#575))
REPRESENTATION_CONTEXT('','3D')
);
#572=(
LENGTH_UNIT()
NAMED_UNIT(*)
SI_UNIT(.MILLI.,.METRE.)
);
#573=(
LENGTH_UNIT()
NAMED_UNIT(*)
SI_UNIT($,.METRE.)
);
#574=(
NAMED_UNIT(*)
PLANE_ANGLE_UNIT()
SI_UNIT($,.RADIAN.)
);
#575=(
NAMED_UNIT(*)
SI_UNIT($,.STERADIAN.)
SOLID_ANGLE_UNIT()
);
#576=SHAPE_DEFINITION_REPRESENTATION(#578,#581);
#577=SHAPE_DEFINITION_REPRESENTATION(#579,#582);
#578=PRODUCT_DEFINITION_SHAPE('',$,#584);
#579=PRODUCT_DEFINITION_SHAPE('',$,#585);
#580=PRODUCT_DEFINITION_SHAPE($,$,#14);
#581=SHAPE_REPRESENTATION('',(#338,#376),#569);
#582=SHAPE_REPRESENTATION('',(#339),#570);
#583=PRODUCT_DEFINITION_CONTEXT('part definition',#591,'design');
#584=PRODUCT_DEFINITION('BN Fixed Baseplate Riser - 6mm',
'BN Fixed Baseplate Riser - 6mm v2',#586,#583);
#585=PRODUCT_DEFINITION('6mm Riser','6mm Riser',#587,#583);
#586=PRODUCT_DEFINITION_FORMATION('',$,#593);
#587=PRODUCT_DEFINITION_FORMATION('',$,#594);
#588=PRODUCT_RELATED_PRODUCT_CATEGORY(
'BN Fixed Baseplate Riser - 6mm v2','BN Fixed Baseplate Riser - 6mm v2',
(#593));
#589=PRODUCT_RELATED_PRODUCT_CATEGORY('6mm Riser','6mm Riser',(#594));
#590=APPLICATION_PROTOCOL_DEFINITION('international standard',
'automotive_design',2009,#591);
#591=APPLICATION_CONTEXT(
'Core Data for Automotive Mechanical Design Process');
#592=PRODUCT_CONTEXT('part definition',#591,'mechanical');
#593=PRODUCT('BN Fixed Baseplate Riser - 6mm',
'BN Fixed Baseplate Riser - 6mm v2',$,(#592));
#594=PRODUCT('6mm Riser','6mm Riser',$,(#592));
#595=PRESENTATION_STYLE_ASSIGNMENT((#596));
#596=SURFACE_STYLE_USAGE(.BOTH.,#597);
#597=SURFACE_SIDE_STYLE('',(#598));
#598=SURFACE_STYLE_FILL_AREA(#599);
#599=FILL_AREA_STYLE('Steel - Satin',(#600));
#600=FILL_AREA_STYLE_COLOUR('Steel - Satin',#601);
#601=COLOUR_RGB('Steel - Satin',0.627450980392157,0.627450980392157,0.627450980392157);
ENDSEC;
END-ISO-10303-21;
