ISO-10303-21;
HEADER;
/* Generated by software containing ST-Developer
 * from STEP Tools, Inc. (www.steptools.com) 
 */

FILE_DESCRIPTION(
/* description */ (''),
/* implementation_level */ '2;1');

FILE_NAME(
/* name */ 
'C:/Users/task6/Desktop/Supoort_Spacer_For_Trampa_SuperStars.step',
/* time_stamp */ '2021-11-21T19:42:14-08:00',
/* author */ (''),
/* organization */ (''),
/* preprocessor_version */ 'ST-DEVELOPER v18.1',
/* originating_system */ 'Autodesk Translation Framework v10.10.0.1391',

/* authorisation */ '');

FILE_SCHEMA (('AUTOMOTIVE_DESIGN { 1 0 10303 214 3 1 1 }'));
ENDSEC;

DATA;
#10=MECHANICAL_DESIGN_GEOMETRIC_PRESENTATION_REPRESENTATION('',(#13),#215);
#11=SHAPE_REPRESENTATION_RELATIONSHIP('SRR','None',#222,#12);
#12=ADVANCED_BREP_SHAPE_REPRESENTATION('',(#14),#214);
#13=STYLED_ITEM('',(#231),#14);
#14=MANIFOLD_SOLID_BREP('Body1',#115);
#15=LINE('',#195,#19);
#16=LINE('',#200,#20);
#17=LINE('',#208,#21);
#18=LINE('',#211,#22);
#19=VECTOR('',#161,12.5);
#20=VECTOR('',#166,12.5);
#21=VECTOR('',#177,13.5000000149012);
#22=VECTOR('',#182,11.5);
#23=CYLINDRICAL_SURFACE('',#135,12.5);
#24=CYLINDRICAL_SURFACE('',#136,12.5);
#25=CYLINDRICAL_SURFACE('',#141,13.5000000149012);
#26=CYLINDRICAL_SURFACE('',#144,11.5);
#27=FACE_BOUND('',#40,.T.);
#28=FACE_BOUND('',#42,.T.);
#29=FACE_BOUND('',#46,.T.);
#30=FACE_BOUND('',#49,.T.);
#31=FACE_OUTER_BOUND('',#39,.T.);
#32=FACE_OUTER_BOUND('',#41,.T.);
#33=FACE_OUTER_BOUND('',#43,.T.);
#34=FACE_OUTER_BOUND('',#44,.T.);
#35=FACE_OUTER_BOUND('',#45,.T.);
#36=FACE_OUTER_BOUND('',#47,.T.);
#37=FACE_OUTER_BOUND('',#48,.T.);
#38=FACE_OUTER_BOUND('',#50,.T.);
#39=EDGE_LOOP('',(#79));
#40=EDGE_LOOP('',(#80));
#41=EDGE_LOOP('',(#81));
#42=EDGE_LOOP('',(#82));
#43=EDGE_LOOP('',(#83,#84,#85,#86));
#44=EDGE_LOOP('',(#87,#88,#89,#90));
#45=EDGE_LOOP('',(#91));
#46=EDGE_LOOP('',(#92));
#47=EDGE_LOOP('',(#93,#94,#95,#96));
#48=EDGE_LOOP('',(#97));
#49=EDGE_LOOP('',(#98));
#50=EDGE_LOOP('',(#99,#100,#101,#102));
#51=CIRCLE('',#130,12.5);
#52=CIRCLE('',#131,11.5);
#53=CIRCLE('',#133,13.5000000149012);
#54=CIRCLE('',#134,12.5);
#55=CIRCLE('',#137,12.5);
#56=CIRCLE('',#138,12.5);
#57=CIRCLE('',#140,11.5);
#58=CIRCLE('',#142,13.5000000149012);
#59=VERTEX_POINT('',#185);
#60=VERTEX_POINT('',#187);
#61=VERTEX_POINT('',#190);
#62=VERTEX_POINT('',#192);
#63=VERTEX_POINT('',#197);
#64=VERTEX_POINT('',#199);
#65=VERTEX_POINT('',#203);
#66=VERTEX_POINT('',#206);
#67=EDGE_CURVE('',#59,#59,#51,.T.);
#68=EDGE_CURVE('',#60,#60,#52,.T.);
#69=EDGE_CURVE('',#61,#61,#53,.T.);
#70=EDGE_CURVE('',#62,#62,#54,.T.);
#71=EDGE_CURVE('',#59,#62,#15,.T.);
#72=EDGE_CURVE('',#63,#63,#55,.T.);
#73=EDGE_CURVE('',#63,#64,#16,.T.);
#74=EDGE_CURVE('',#64,#64,#56,.T.);
#75=EDGE_CURVE('',#65,#65,#57,.T.);
#76=EDGE_CURVE('',#66,#66,#58,.T.);
#77=EDGE_CURVE('',#66,#61,#17,.T.);
#78=EDGE_CURVE('',#65,#60,#18,.T.);
#79=ORIENTED_EDGE('',*,*,#67,.F.);
#80=ORIENTED_EDGE('',*,*,#68,.F.);
#81=ORIENTED_EDGE('',*,*,#69,.F.);
#82=ORIENTED_EDGE('',*,*,#70,.F.);
#83=ORIENTED_EDGE('',*,*,#67,.T.);
#84=ORIENTED_EDGE('',*,*,#71,.T.);
#85=ORIENTED_EDGE('',*,*,#70,.T.);
#86=ORIENTED_EDGE('',*,*,#71,.F.);
#87=ORIENTED_EDGE('',*,*,#72,.F.);
#88=ORIENTED_EDGE('',*,*,#73,.T.);
#89=ORIENTED_EDGE('',*,*,#74,.F.);
#90=ORIENTED_EDGE('',*,*,#73,.F.);
#91=ORIENTED_EDGE('',*,*,#72,.T.);
#92=ORIENTED_EDGE('',*,*,#75,.T.);
#93=ORIENTED_EDGE('',*,*,#76,.F.);
#94=ORIENTED_EDGE('',*,*,#77,.T.);
#95=ORIENTED_EDGE('',*,*,#69,.T.);
#96=ORIENTED_EDGE('',*,*,#77,.F.);
#97=ORIENTED_EDGE('',*,*,#76,.T.);
#98=ORIENTED_EDGE('',*,*,#74,.T.);
#99=ORIENTED_EDGE('',*,*,#75,.F.);
#100=ORIENTED_EDGE('',*,*,#78,.T.);
#101=ORIENTED_EDGE('',*,*,#68,.T.);
#102=ORIENTED_EDGE('',*,*,#78,.F.);
#103=PLANE('',#129);
#104=PLANE('',#132);
#105=PLANE('',#139);
#106=PLANE('',#143);
#107=ADVANCED_FACE('',(#31,#27),#103,.T.);
#108=ADVANCED_FACE('',(#32,#28),#104,.F.);
#109=ADVANCED_FACE('',(#33),#23,.T.);
#110=ADVANCED_FACE('',(#34),#24,.T.);
#111=ADVANCED_FACE('',(#35,#29),#105,.T.);
#112=ADVANCED_FACE('',(#36),#25,.T.);
#113=ADVANCED_FACE('',(#37,#30),#106,.T.);
#114=ADVANCED_FACE('',(#38),#26,.F.);
#115=CLOSED_SHELL('',(#107,#108,#109,#110,#111,#112,#113,#114));
#116=DERIVED_UNIT_ELEMENT(#118,1.);
#117=DERIVED_UNIT_ELEMENT(#217,-3.);
#118=(
MASS_UNIT()
NAMED_UNIT(*)
SI_UNIT(.KILO.,.GRAM.)
);
#119=DERIVED_UNIT((#116,#117));
#120=MEASURE_REPRESENTATION_ITEM('density measure',
POSITIVE_RATIO_MEASURE(1380.),#119);
#121=PROPERTY_DEFINITION_REPRESENTATION(#126,#123);
#122=PROPERTY_DEFINITION_REPRESENTATION(#127,#124);
#123=REPRESENTATION('material name',(#125),#214);
#124=REPRESENTATION('density',(#120),#214);
#125=DESCRIPTIVE_REPRESENTATION_ITEM('Laminate, Red, Matte',
'Laminate, Red, Matte');
#126=PROPERTY_DEFINITION('material property','material name',#224);
#127=PROPERTY_DEFINITION('material property','density of part',#224);
#128=AXIS2_PLACEMENT_3D('placement',#183,#145,#146);
#129=AXIS2_PLACEMENT_3D('',#184,#147,#148);
#130=AXIS2_PLACEMENT_3D('',#186,#149,#150);
#131=AXIS2_PLACEMENT_3D('',#188,#151,#152);
#132=AXIS2_PLACEMENT_3D('',#189,#153,#154);
#133=AXIS2_PLACEMENT_3D('',#191,#155,#156);
#134=AXIS2_PLACEMENT_3D('',#193,#157,#158);
#135=AXIS2_PLACEMENT_3D('',#194,#159,#160);
#136=AXIS2_PLACEMENT_3D('',#196,#162,#163);
#137=AXIS2_PLACEMENT_3D('',#198,#164,#165);
#138=AXIS2_PLACEMENT_3D('',#201,#167,#168);
#139=AXIS2_PLACEMENT_3D('',#202,#169,#170);
#140=AXIS2_PLACEMENT_3D('',#204,#171,#172);
#141=AXIS2_PLACEMENT_3D('',#205,#173,#174);
#142=AXIS2_PLACEMENT_3D('',#207,#175,#176);
#143=AXIS2_PLACEMENT_3D('',#209,#178,#179);
#144=AXIS2_PLACEMENT_3D('',#210,#180,#181);
#145=DIRECTION('axis',(0.,0.,1.));
#146=DIRECTION('refdir',(1.,0.,0.));
#147=DIRECTION('center_axis',(0.,-1.,0.));
#148=DIRECTION('ref_axis',(1.,0.,0.));
#149=DIRECTION('center_axis',(0.,1.,0.));
#150=DIRECTION('ref_axis',(1.,0.,0.));
#151=DIRECTION('center_axis',(0.,-1.,0.));
#152=DIRECTION('ref_axis',(1.,0.,0.));
#153=DIRECTION('center_axis',(0.,1.,0.));
#154=DIRECTION('ref_axis',(-1.,0.,0.));
#155=DIRECTION('center_axis',(0.,1.,0.));
#156=DIRECTION('ref_axis',(-1.,0.,0.));
#157=DIRECTION('center_axis',(0.,-1.,0.));
#158=DIRECTION('ref_axis',(1.,0.,0.));
#159=DIRECTION('center_axis',(0.,1.,0.));
#160=DIRECTION('ref_axis',(1.,0.,0.));
#161=DIRECTION('',(0.,1.,0.));
#162=DIRECTION('center_axis',(0.,1.,0.));
#163=DIRECTION('ref_axis',(-1.,0.,0.));
#164=DIRECTION('center_axis',(0.,1.,0.));
#165=DIRECTION('ref_axis',(-1.,0.,0.));
#166=DIRECTION('',(0.,-1.,0.));
#167=DIRECTION('center_axis',(0.,-1.,0.));
#168=DIRECTION('ref_axis',(-1.,0.,0.));
#169=DIRECTION('center_axis',(0.,1.,0.));
#170=DIRECTION('ref_axis',(1.,0.,0.));
#171=DIRECTION('center_axis',(0.,-1.,0.));
#172=DIRECTION('ref_axis',(1.,0.,0.));
#173=DIRECTION('center_axis',(0.,1.,0.));
#174=DIRECTION('ref_axis',(-1.,0.,0.));
#175=DIRECTION('center_axis',(0.,1.,0.));
#176=DIRECTION('ref_axis',(-1.,0.,0.));
#177=DIRECTION('',(0.,-1.,0.));
#178=DIRECTION('center_axis',(0.,1.,0.));
#179=DIRECTION('ref_axis',(-1.,0.,0.));
#180=DIRECTION('center_axis',(0.,1.,0.));
#181=DIRECTION('ref_axis',(1.,0.,0.));
#182=DIRECTION('',(0.,-1.,0.));
#183=CARTESIAN_POINT('',(0.,0.,0.));
#184=CARTESIAN_POINT('Origin',(0.,-3.,0.));
#185=CARTESIAN_POINT('',(-12.5,-3.,-1.53080849893419E-15));
#186=CARTESIAN_POINT('Origin',(0.,-3.,0.));
#187=CARTESIAN_POINT('',(-11.5,-3.,-1.40834381901946E-15));
#188=CARTESIAN_POINT('Origin',(0.,-3.,0.));
#189=CARTESIAN_POINT('Origin',(0.,-2.,0.));
#190=CARTESIAN_POINT('',(13.5000000149012,-2.,-1.65327318067379E-15));
#191=CARTESIAN_POINT('Origin',(0.,-2.,0.));
#192=CARTESIAN_POINT('',(-12.5,-2.,1.53080849893419E-15));
#193=CARTESIAN_POINT('Origin',(0.,-2.,0.));
#194=CARTESIAN_POINT('Origin',(0.,-4.5,0.));
#195=CARTESIAN_POINT('',(-12.5,-4.5,1.53080849893419E-15));
#196=CARTESIAN_POINT('Origin',(0.,7.,0.));
#197=CARTESIAN_POINT('',(12.5,14.,-1.53080849893419E-15));
#198=CARTESIAN_POINT('Origin',(0.,14.,0.));
#199=CARTESIAN_POINT('',(12.5,13.,-1.53080849893419E-15));
#200=CARTESIAN_POINT('',(12.5,7.,-1.53080849893419E-15));
#201=CARTESIAN_POINT('Origin',(0.,13.,0.));
#202=CARTESIAN_POINT('Origin',(0.,14.,0.));
#203=CARTESIAN_POINT('',(-11.5,14.,1.40834381901946E-15));
#204=CARTESIAN_POINT('Origin',(0.,14.,0.));
#205=CARTESIAN_POINT('Origin',(0.,1.,0.));
#206=CARTESIAN_POINT('',(13.5000000149012,13.,-1.65327318067379E-15));
#207=CARTESIAN_POINT('Origin',(0.,13.,0.));
#208=CARTESIAN_POINT('',(13.5000000149012,1.,-1.65327318067379E-15));
#209=CARTESIAN_POINT('Origin',(0.,13.,0.));
#210=CARTESIAN_POINT('Origin',(0.,0.,0.));
#211=CARTESIAN_POINT('',(-11.5,0.,1.40834381901946E-15));
#212=UNCERTAINTY_MEASURE_WITH_UNIT(LENGTH_MEASURE(0.01),#216,
'DISTANCE_ACCURACY_VALUE',
'Maximum model space distance between geometric entities at asserted c
onnectivities');
#213=UNCERTAINTY_MEASURE_WITH_UNIT(LENGTH_MEASURE(0.01),#216,
'DISTANCE_ACCURACY_VALUE',
'Maximum model space distance between geometric entities at asserted c
onnectivities');
#214=(
GEOMETRIC_REPRESENTATION_CONTEXT(3)
GLOBAL_UNCERTAINTY_ASSIGNED_CONTEXT((#212))
GLOBAL_UNIT_ASSIGNED_CONTEXT((#216,#218,#219))
REPRESENTATION_CONTEXT('','3D')
);
#215=(
GEOMETRIC_REPRESENTATION_CONTEXT(3)
GLOBAL_UNCERTAINTY_ASSIGNED_CONTEXT((#213))
GLOBAL_UNIT_ASSIGNED_CONTEXT((#216,#218,#219))
REPRESENTATION_CONTEXT('','3D')
);
#216=(
LENGTH_UNIT()
NAMED_UNIT(*)
SI_UNIT(.MILLI.,.METRE.)
);
#217=(
LENGTH_UNIT()
NAMED_UNIT(*)
SI_UNIT($,.METRE.)
);
#218=(
NAMED_UNIT(*)
PLANE_ANGLE_UNIT()
SI_UNIT($,.RADIAN.)
);
#219=(
NAMED_UNIT(*)
SI_UNIT($,.STERADIAN.)
SOLID_ANGLE_UNIT()
);
#220=SHAPE_DEFINITION_REPRESENTATION(#221,#222);
#221=PRODUCT_DEFINITION_SHAPE('',$,#224);
#222=SHAPE_REPRESENTATION('',(#128),#214);
#223=PRODUCT_DEFINITION_CONTEXT('part definition',#228,'design');
#224=PRODUCT_DEFINITION('(Unsaved)','(Unsaved)',#225,#223);
#225=PRODUCT_DEFINITION_FORMATION('',$,#230);
#226=PRODUCT_RELATED_PRODUCT_CATEGORY('(Unsaved)','(Unsaved)',(#230));
#227=APPLICATION_PROTOCOL_DEFINITION('international standard',
'automotive_design',2009,#228);
#228=APPLICATION_CONTEXT(
'Core Data for Automotive Mechanical Design Process');
#229=PRODUCT_CONTEXT('part definition',#228,'mechanical');
#230=PRODUCT('(Unsaved)','(Unsaved)',$,(#229));
#231=PRESENTATION_STYLE_ASSIGNMENT((#232));
#232=SURFACE_STYLE_USAGE(.BOTH.,#233);
#233=SURFACE_SIDE_STYLE('',(#234));
#234=SURFACE_STYLE_FILL_AREA(#235);
#235=FILL_AREA_STYLE('Plastic - Matte (Red)',(#236));
#236=FILL_AREA_STYLE_COLOUR('Plastic - Matte (Red)',#237);
#237=COLOUR_RGB('Plastic - Matte (Red)',0.768627450980392,0.207843137254902,
0.152941176470588);
ENDSEC;
END-ISO-10303-21;
